ISO-10303-21;
HEADER;
FILE_DESCRIPTION (( 'STEP AP214' ),
    '1' );
FILE_NAME ('A602 Íàòÿæíîé àëþìèíèåâûé ðîëèê ðåìíÿ GT2, ïîä âàë 6ìì.STEP',
    '2022-04-01T08:45:03',
    ( 'Ïîëüçîâàòåëü Windows' ),
    ( '' ),
    'SwSTEP 2.0',
    'SolidWorks 2021',
    '' );
FILE_SCHEMA (( 'AUTOMOTIVE_DESIGN' ));
ENDSEC;

DATA;
#1 = EDGE_CURVE ( 'NONE', #264, #8, #62, .T. ) ;
#2 = ORIENTED_EDGE ( 'NONE', *, *, #172, .F. ) ;
#3 = EDGE_LOOP ( 'NONE', ( #5, #148, #317, #261 ) ) ;
#4 = DIRECTION ( 'NONE',  ( 1.000000000000000000, 0.000000000000000000, 0.000000000000000000 ) ) ;
#5 = ORIENTED_EDGE ( 'NONE', *, *, #372, .F. ) ;
#6 = MECHANICAL_DESIGN_GEOMETRIC_PRESENTATION_REPRESENTATION (  '', ( #55 ), #28 ) ;
#7 = CARTESIAN_POINT ( 'NONE',  ( 3.000000000000000444, 3.673940397442060361E-16, 4.250000000000000000 ) ) ;
#8 = VERTEX_POINT ( 'NONE', #368 ) ;
#9 = VECTOR ( 'NONE', #328, 1000.000000000000000 ) ;
#10 =( NAMED_UNIT ( * ) SI_UNIT ( $, .STERADIAN. ) SOLID_ANGLE_UNIT ( ) );
#11 = VERTEX_POINT ( 'NONE', #53 ) ;
#12 = CARTESIAN_POINT ( 'NONE',  ( 0.000000000000000000, 0.000000000000000000, -3.250000000000000000 ) ) ;
#13 = PRESENTATION_STYLE_ASSIGNMENT (( #162 ) ) ;
#14 = DIRECTION ( 'NONE',  ( 1.000000000000000000, 0.000000000000000000, 0.000000000000000000 ) ) ;
#15 = CARTESIAN_POINT ( 'NONE',  ( 0.000000000000000000, 0.000000000000000000, 3.250000000000000000 ) ) ;
#16 = EDGE_CURVE ( 'NONE', #67, #150, #303, .T. ) ;
#17 = LINE ( 'NONE', #248, #9 ) ;
#18 = DIRECTION ( 'NONE',  ( 1.000000000000000000, 0.000000000000000000, 0.000000000000000000 ) ) ;
#19 = PRESENTATION_STYLE_ASSIGNMENT (( #302 ) ) ;
#20 = DIRECTION ( 'NONE',  ( -1.000000000000000000, 0.000000000000000000, 0.000000000000000000 ) ) ;
#21 = DIRECTION ( 'NONE',  ( 1.000000000000000000, 0.000000000000000000, 0.000000000000000000 ) ) ;
#22 = DIRECTION ( 'NONE',  ( 1.000000000000000000, 0.000000000000000000, 0.000000000000000000 ) ) ;
#23 = DIRECTION ( 'NONE',  ( 1.000000000000000000, 0.000000000000000000, -0.000000000000000000 ) ) ;
#24 = VERTEX_POINT ( 'NONE', #83 ) ;
#25 = EDGE_CURVE ( 'NONE', #242, #347, #309, .T. ) ;
#26 = CIRCLE ( 'NONE', #125, 9.000000000000000000 ) ;
#27 = CIRCLE ( 'NONE', #175, 3.000000000000000444 ) ;
#28 =( GEOMETRIC_REPRESENTATION_CONTEXT ( 3 ) GLOBAL_UNCERTAINTY_ASSIGNED_CONTEXT ( ( #66 ) ) GLOBAL_UNIT_ASSIGNED_CONTEXT ( ( #100, #149, #85 ) ) REPRESENTATION_CONTEXT ( 'NONE', 'WORKASPACE' ) );
#29 = ORIENTED_EDGE ( 'NONE', *, *, #281, .T. ) ;
#30 = EDGE_CURVE ( 'NONE', #11, #264, #144, .T. ) ;
#31 = UNCERTAINTY_MEASURE_WITH_UNIT (LENGTH_MEASURE( 1.000000000000000082E-05 ), #289, 'distance_accuracy_value', 'NONE');
#32 = ORIENTED_EDGE ( 'NONE', *, *, #140, .F. ) ;
#33 = ORIENTED_EDGE ( 'NONE', *, *, #140, .T. ) ;
#34 = DIRECTION ( 'NONE',  ( 1.000000000000000000, 0.000000000000000000, 0.000000000000000000 ) ) ;
#35 = EDGE_LOOP ( 'NONE', ( #282, #93 ) ) ;
#36 = AXIS2_PLACEMENT_3D ( 'NONE', #274, #171, #20 ) ;
#37 = ORIENTED_EDGE ( 'NONE', *, *, #345, .F. ) ;
#38 = AXIS2_PLACEMENT_3D ( 'NONE', #102, #363, #360 ) ;
#39 = CARTESIAN_POINT ( 'NONE',  ( 0.000000000000000000, 0.000000000000000000, 4.250000000000000000 ) ) ;
#40 = SURFACE_SIDE_STYLE ('',( #297 ) ) ;
#41 = EDGE_CURVE ( 'NONE', #8, #264, #166, .T. ) ;
#42 = FACE_OUTER_BOUND ( 'NONE', #213, .T. ) ;
#43 = PLANE ( 'NONE',  #38 ) ;
#44 = FACE_OUTER_BOUND ( 'NONE', #152, .T. ) ;
#45 = PLANE ( 'NONE',  #61 ) ;
#46 = AXIS2_PLACEMENT_3D ( 'NONE', #186, #240, #300 ) ;
#47 = DIRECTION ( 'NONE',  ( -0.000000000000000000, -0.000000000000000000, 1.000000000000000000 ) ) ;
#48 = CIRCLE ( 'NONE', #304, 3.000000000000000444 ) ;
#49 =( LENGTH_UNIT ( ) NAMED_UNIT ( * ) SI_UNIT ( .MILLI., .METRE. ) );
#50 = FACE_OUTER_BOUND ( 'NONE', #287, .T. ) ;
#51 = DIRECTION ( 'NONE',  ( 1.000000000000000000, 0.000000000000000000, 0.000000000000000000 ) ) ;
#52 = PRODUCT_DEFINITION_FORMATION_WITH_SPECIFIED_SOURCE ( 'ANY', '', #253, .NOT_KNOWN. ) ;
#53 = CARTESIAN_POINT ( 'NONE',  ( -3.000000000000000444, 0.000000000000000000, 4.250000000000000000 ) ) ;
#54 = CARTESIAN_POINT ( 'NONE',  ( 9.000000000000000000, 1.102182119232617714E-15, -3.250000000000000000 ) ) ;
#55 = STYLED_ITEM ( 'NONE', ( #13 ), #69 ) ;
#56 =( GEOMETRIC_REPRESENTATION_CONTEXT ( 3 ) GLOBAL_UNCERTAINTY_ASSIGNED_CONTEXT ( ( #31 ) ) GLOBAL_UNIT_ASSIGNED_CONTEXT ( ( #289, #153, #10 ) ) REPRESENTATION_CONTEXT ( 'NONE', 'WORKASPACE' ) );
#57 = AXIS2_PLACEMENT_3D ( 'NONE', #221, #138, #101 ) ;
#58 = ADVANCED_FACE ( 'NONE', ( #255 ), #145, .F. ) ;
#59 = ORIENTED_EDGE ( 'NONE', *, *, #112, .T. ) ;
#60 = AXIS2_PLACEMENT_3D ( 'NONE', #114, #91, #146 ) ;
#61 = AXIS2_PLACEMENT_3D ( 'NONE', #77, #96, #70 ) ;
#62 = CIRCLE ( 'NONE', #265, 3.000000000000000444 ) ;
#63 = PRESENTATION_LAYER_ASSIGNMENT (  '', '', ( #238 ) ) ;
#64 = CARTESIAN_POINT ( 'NONE',  ( 3.000000000000000444, 3.673940397442060361E-16, 4.250000000000000000 ) ) ;
#65 = DIRECTION ( 'NONE',  ( -0.000000000000000000, -0.000000000000000000, -1.000000000000000000 ) ) ;
#66 = UNCERTAINTY_MEASURE_WITH_UNIT (LENGTH_MEASURE( 1.000000000000000082E-05 ), #100, 'distance_accuracy_value', 'NONE');
#67 = VERTEX_POINT ( 'NONE', #105 ) ;
#68 = PRODUCT_DEFINITION ( 'UNKNOWN', '', #52, #230 ) ;
#69 = ADVANCED_BREP_SHAPE_REPRESENTATION ( 'A602 =ðª öýþùàðû¦üøýøõòvùà¨þûøúà¨õüý àGT2,àÿþôàòðûà6üü', ( #203, #60 ), #56 ) ;
#70 = DIRECTION ( 'NONE',  ( 1.000000000000000000, 0.000000000000000000, -0.000000000000000000 ) ) ;
#71 = EDGE_LOOP ( 'NONE', ( #259, #124, #123, #181 ) ) ;
#72 = CARTESIAN_POINT ( 'NONE',  ( -6.000000000000000888, 7.347880794884119736E-16, -3.250000000000000000 ) ) ;
#73 = CARTESIAN_POINT ( 'NONE',  ( 0.000000000000000000, 0.000000000000000000, 4.250000000000000000 ) ) ;
#74 = DIRECTION ( 'NONE',  ( -0.000000000000000000, -0.000000000000000000, -1.000000000000000000 ) ) ;
#75 = FACE_OUTER_BOUND ( 'NONE', #179, .T. ) ;
#76 = LINE ( 'NONE', #64, #226 ) ;
#77 = CARTESIAN_POINT ( 'NONE',  ( 0.000000000000000000, 0.000000000000000000, -4.250000000000000000 ) ) ;
#78 = DIRECTION ( 'NONE',  ( 1.000000000000000000, 0.000000000000000000, 0.000000000000000000 ) ) ;
#79 = FACE_BOUND ( 'NONE', #92, .T. ) ;
#80 = AXIS2_PLACEMENT_3D ( 'NONE', #246, #47, #18 ) ;
#81 = DIRECTION ( 'NONE',  ( 0.000000000000000000, 0.000000000000000000, 1.000000000000000000 ) ) ;
#82 = CYLINDRICAL_SURFACE ( 'NONE', #36, 3.000000000000000444 ) ;
#83 = CARTESIAN_POINT ( 'NONE',  ( 6.000000000000000888, 0.000000000000000000, -3.250000000000000000 ) ) ;
#84 = DIRECTION ( 'NONE',  ( -0.000000000000000000, -0.000000000000000000, 1.000000000000000000 ) ) ;
#85 =( NAMED_UNIT ( * ) SI_UNIT ( $, .STERADIAN. ) SOLID_ANGLE_UNIT ( ) );
#86 = AXIS2_PLACEMENT_3D ( 'NONE', #276, #141, #202 ) ;
#87 = PRODUCT_RELATED_PRODUCT_CATEGORY ( 'part', '', ( #253 ) ) ;
#88 = EDGE_LOOP ( 'NONE', ( #241, #182, #344, #95 ) ) ;
#89 = EDGE_LOOP ( 'NONE', ( #233, #32 ) ) ;
#90 = VECTOR ( 'NONE', #65, 1000.000000000000000 ) ;
#91 = DIRECTION ( 'NONE',  ( 0.000000000000000000, 0.000000000000000000, 1.000000000000000000 ) ) ;
#92 = EDGE_LOOP ( 'NONE', ( #350, #319 ) ) ;
#93 = ORIENTED_EDGE ( 'NONE', *, *, #41, .T. ) ;
#94 = EDGE_LOOP ( 'NONE', ( #211, #288 ) ) ;
#95 = ORIENTED_EDGE ( 'NONE', *, *, #219, .T. ) ;
#96 = DIRECTION ( 'NONE',  ( 0.000000000000000000, 0.000000000000000000, 1.000000000000000000 ) ) ;
#97 = AXIS2_PLACEMENT_3D ( 'NONE', #110, #115, #337 ) ;
#98 = FILL_AREA_STYLE ('',( #247 ) ) ;
#99 = DIRECTION ( 'NONE',  ( 0.000000000000000000, 0.000000000000000000, 1.000000000000000000 ) ) ;
#100 =( LENGTH_UNIT ( ) NAMED_UNIT ( * ) SI_UNIT ( .MILLI., .METRE. ) );
#101 = DIRECTION ( 'NONE',  ( 1.000000000000000000, 0.000000000000000000, 0.000000000000000000 ) ) ;
#102 = CARTESIAN_POINT ( 'NONE',  ( 0.000000000000000000, 0.000000000000000000, 4.250000000000000000 ) ) ;
#103 = CARTESIAN_POINT ( 'NONE',  ( 0.000000000000000000, 0.000000000000000000, 3.250000000000000000 ) ) ;
#104 = CARTESIAN_POINT ( 'NONE',  ( -3.000000000000000444, 0.000000000000000000, -4.250000000000000000 ) ) ;
#105 = CARTESIAN_POINT ( 'NONE',  ( -9.000000000000000000, 0.000000000000000000, 4.250000000000000000 ) ) ;
#106 = EDGE_CURVE ( 'NONE', #130, #353, #195, .T. ) ;
#107 = AXIS2_PLACEMENT_3D ( 'NONE', #308, #256, #23 ) ;
#108 = CIRCLE ( 'NONE', #46, 6.000000000000000888 ) ;
#109 = DIRECTION ( 'NONE',  ( -0.000000000000000000, -0.000000000000000000, -1.000000000000000000 ) ) ;
#110 = CARTESIAN_POINT ( 'NONE',  ( 0.000000000000000000, 0.000000000000000000, 3.250000000000000000 ) ) ;
#111 = CYLINDRICAL_SURFACE ( 'NONE', #174, 6.000000000000000888 ) ;
#112 = EDGE_CURVE ( 'NONE', #267, #177, #26, .T. ) ;
#113 = VECTOR ( 'NONE', #127, 1000.000000000000000 ) ;
#114 = CARTESIAN_POINT ( 'NONE',  ( 0.000000000000000000, 0.000000000000000000, 0.000000000000000000 ) ) ;
#115 = DIRECTION ( 'NONE',  ( 0.000000000000000000, 0.000000000000000000, 1.000000000000000000 ) ) ;
#116 = SHAPE_DEFINITION_REPRESENTATION ( #200, #69 ) ;
#117 = ADVANCED_FACE ( 'NONE', ( #369 ), #111, .T. ) ;
#118 = VERTEX_POINT ( 'NONE', #306 ) ;
#119 = ORIENTED_EDGE ( 'NONE', *, *, #25, .T. ) ;
#120 = ORIENTED_EDGE ( 'NONE', *, *, #234, .T. ) ;
#121 = ADVANCED_FACE ( 'NONE', ( #338, #50 ), #139, .T. ) ;
#122 = UNCERTAINTY_MEASURE_WITH_UNIT (LENGTH_MEASURE( 1.000000000000000082E-05 ), #49, 'distance_accuracy_value', 'NONE');
#123 = ORIENTED_EDGE ( 'NONE', *, *, #1, .F. ) ;
#124 = ORIENTED_EDGE ( 'NONE', *, *, #315, .T. ) ;
#125 = AXIS2_PLACEMENT_3D ( 'NONE', #170, #81, #169 ) ;
#126 = AXIS2_PLACEMENT_3D ( 'NONE', #103, #99, #217 ) ;
#127 = DIRECTION ( 'NONE',  ( -0.000000000000000000, -0.000000000000000000, 1.000000000000000000 ) ) ;
#128 = ORIENTED_EDGE ( 'NONE', *, *, #372, .T. ) ;
#129 = EDGE_LOOP ( 'NONE', ( #207, #258 ) ) ;
#130 = VERTEX_POINT ( 'NONE', #335 ) ;
#131 = LINE ( 'NONE', #294, #90 ) ;
#132 = ADVANCED_FACE ( 'NONE', ( #311 ), #82, .F. ) ;
#133 = DIRECTION ( 'NONE',  ( 0.000000000000000000, 0.000000000000000000, 1.000000000000000000 ) ) ;
#134 = DIRECTION ( 'NONE',  ( -0.000000000000000000, -0.000000000000000000, -1.000000000000000000 ) ) ;
#135 = CYLINDRICAL_SURFACE ( 'NONE', #313, 9.000000000000000000 ) ;
#136 = CARTESIAN_POINT ( 'NONE',  ( -9.000000000000000000, 0.000000000000000000, 3.250000000000000000 ) ) ;
#137 = DIRECTION ( 'NONE',  ( -1.000000000000000000, 0.000000000000000000, 0.000000000000000000 ) ) ;
#138 = DIRECTION ( 'NONE',  ( 0.000000000000000000, 0.000000000000000000, 1.000000000000000000 ) ) ;
#139 = PLANE ( 'NONE',  #107 ) ;
#140 = EDGE_CURVE ( 'NONE', #347, #242, #205, .T. ) ;
#141 = DIRECTION ( 'NONE',  ( 0.000000000000000000, 0.000000000000000000, 1.000000000000000000 ) ) ;
#142 = AXIS2_PLACEMENT_3D ( 'NONE', #15, #222, #78 ) ;
#143 = DIRECTION ( 'NONE',  ( 0.000000000000000000, 0.000000000000000000, 1.000000000000000000 ) ) ;
#144 = LINE ( 'NONE', #198, #209 ) ;
#145 = CYLINDRICAL_SURFACE ( 'NONE', #260, 3.000000000000000444 ) ;
#146 = DIRECTION ( 'NONE',  ( 1.000000000000000000, 0.000000000000000000, 0.000000000000000000 ) ) ;
#147 = CIRCLE ( 'NONE', #351, 6.000000000000000888 ) ;
#148 = ORIENTED_EDGE ( 'NONE', *, *, #296, .T. ) ;
#149 =( NAMED_UNIT ( * ) PLANE_ANGLE_UNIT ( ) SI_UNIT ( $, .RADIAN. ) );
#150 = VERTEX_POINT ( 'NONE', #251 ) ;
#151 = DIRECTION ( 'NONE',  ( 0.000000000000000000, 0.000000000000000000, 1.000000000000000000 ) ) ;
#152 = EDGE_LOOP ( 'NONE', ( #346, #178, #374, #119 ) ) ;
#153 =( NAMED_UNIT ( * ) PLANE_ANGLE_UNIT ( ) SI_UNIT ( $, .RADIAN. ) );
#154 = ORIENTED_EDGE ( 'NONE', *, *, #356, .F. ) ;
#155 = VERTEX_POINT ( 'NONE', #54 ) ;
#156 = VECTOR ( 'NONE', #74, 1000.000000000000000 ) ;
#157 =( GEOMETRIC_REPRESENTATION_CONTEXT ( 3 ) GLOBAL_UNCERTAINTY_ASSIGNED_CONTEXT ( ( #122 ) ) GLOBAL_UNIT_ASSIGNED_CONTEXT ( ( #49, #164, #357 ) ) REPRESENTATION_CONTEXT ( 'NONE', 'WORKASPACE' ) );
#158 = ORIENTED_EDGE ( 'NONE', *, *, #367, .T. ) ;
#159 = EDGE_CURVE ( 'NONE', #150, #267, #173, .T. ) ;
#160 = FACE_BOUND ( 'NONE', #35, .T. ) ;
#161 = DIRECTION ( 'NONE',  ( -0.000000000000000000, -0.000000000000000000, -1.000000000000000000 ) ) ;
#162 = SURFACE_STYLE_USAGE ( .BOTH. , #40 ) ;
#163 = FACE_OUTER_BOUND ( 'NONE', #129, .T. ) ;
#164 =( NAMED_UNIT ( * ) PLANE_ANGLE_UNIT ( ) SI_UNIT ( $, .RADIAN. ) );
#165 = CARTESIAN_POINT ( 'NONE',  ( 0.000000000000000000, 0.000000000000000000, 4.250000000000000000 ) ) ;
#166 = CIRCLE ( 'NONE', #370, 3.000000000000000444 ) ;
#167 = CYLINDRICAL_SURFACE ( 'NONE', #80, 6.000000000000000888 ) ;
#168 = SURFACE_STYLE_FILL_AREA ( #98 ) ;
#169 = DIRECTION ( 'NONE',  ( 1.000000000000000000, 0.000000000000000000, 0.000000000000000000 ) ) ;
#170 = CARTESIAN_POINT ( 'NONE',  ( 0.000000000000000000, 0.000000000000000000, 3.250000000000000000 ) ) ;
#171 = DIRECTION ( 'NONE',  ( -0.000000000000000000, -0.000000000000000000, -1.000000000000000000 ) ) ;
#172 = EDGE_CURVE ( 'NONE', #155, #355, #185, .T. ) ;
#173 = LINE ( 'NONE', #365, #292 ) ;
#174 = AXIS2_PLACEMENT_3D ( 'NONE', #225, #84, #229 ) ;
#175 = AXIS2_PLACEMENT_3D ( 'NONE', #358, #218, #272 ) ;
#176 = ADVANCED_FACE ( 'NONE', ( #75, #190 ), #43, .T. ) ;
#177 = VERTEX_POINT ( 'NONE', #136 ) ;
#178 = ORIENTED_EDGE ( 'NONE', *, *, #367, .F. ) ;
#179 = EDGE_LOOP ( 'NONE', ( #184, #323 ) ) ;
#180 = CARTESIAN_POINT ( 'NONE',  ( 9.000000000000000000, 1.102182119232617714E-15, 4.250000000000000000 ) ) ;
#181 = ORIENTED_EDGE ( 'NONE', *, *, #30, .F. ) ;
#182 = ORIENTED_EDGE ( 'NONE', *, *, #16, .F. ) ;
#183 = CARTESIAN_POINT ( 'NONE',  ( 9.000000000000000000, 1.102182119232617714E-15, -4.250000000000000000 ) ) ;
#184 = ORIENTED_EDGE ( 'NONE', *, *, #16, .T. ) ;
#185 = CIRCLE ( 'NONE', #279, 9.000000000000000000 ) ;
#186 = CARTESIAN_POINT ( 'NONE',  ( 0.000000000000000000, 0.000000000000000000, 3.250000000000000000 ) ) ;
#187 = DIRECTION ( 'NONE',  ( 1.000000000000000000, 0.000000000000000000, 0.000000000000000000 ) ) ;
#188 = DIRECTION ( 'NONE',  ( -0.000000000000000000, -0.000000000000000000, 1.000000000000000000 ) ) ;
#189 = DIRECTION ( 'NONE',  ( -0.000000000000000000, -0.000000000000000000, -1.000000000000000000 ) ) ;
#190 = FACE_BOUND ( 'NONE', #341, .T. ) ;
#191 = FACE_OUTER_BOUND ( 'NONE', #314, .T. ) ;
#192 = LINE ( 'NONE', #180, #156 ) ;
#193 = CYLINDRICAL_SURFACE ( 'NONE', #318, 9.000000000000000000 ) ;
#194 = SURFACE_SIDE_STYLE ('',( #168 ) ) ;
#195 = CIRCLE ( 'NONE', #97, 6.000000000000000888 ) ;
#196 = AXIS2_PLACEMENT_3D ( 'NONE', #165, #161, #269 ) ;
#197 = DIRECTION ( 'NONE',  ( -0.000000000000000000, -0.000000000000000000, -1.000000000000000000 ) ) ;
#198 = CARTESIAN_POINT ( 'NONE',  ( -3.000000000000000444, 0.000000000000000000, 4.250000000000000000 ) ) ;
#199 = CARTESIAN_POINT ( 'NONE',  ( 0.000000000000000000, 0.000000000000000000, -3.250000000000000000 ) ) ;
#200 = PRODUCT_DEFINITION_SHAPE ( 'NONE', 'NONE',  #68 ) ;
#201 = DIRECTION ( 'NONE',  ( 0.000000000000000000, 0.000000000000000000, 1.000000000000000000 ) ) ;
#202 = DIRECTION ( 'NONE',  ( 1.000000000000000000, 0.000000000000000000, 0.000000000000000000 ) ) ;
#203 = MANIFOLD_SOLID_BREP ( 'Âûðåç-Âûòÿíóòü1', #342 ) ;
#204 = CIRCLE ( 'NONE', #334, 9.000000000000000000 ) ;
#205 = CIRCLE ( 'NONE', #86, 9.000000000000000000 ) ;
#206 = AXIS2_PLACEMENT_3D ( 'NONE', #249, #362, #14 ) ;
#207 = ORIENTED_EDGE ( 'NONE', *, *, #219, .F. ) ;
#208 = ORIENTED_EDGE ( 'NONE', *, *, #315, .F. ) ;
#209 = VECTOR ( 'NONE', #254, 1000.000000000000000 ) ;
#210 = AXIS2_PLACEMENT_3D ( 'NONE', #39, #326, #137 ) ;
#211 = ORIENTED_EDGE ( 'NONE', *, *, #234, .F. ) ;
#212 = ORIENTED_EDGE ( 'NONE', *, *, #172, .T. ) ;
#213 = EDGE_LOOP ( 'NONE', ( #120, #128, #371, #154 ) ) ;
#214 = LINE ( 'NONE', #354, #348 ) ;
#215 = ORIENTED_EDGE ( 'NONE', *, *, #159, .T. ) ;
#216 = FILL_AREA_STYLE_COLOUR ( '', #291 ) ;
#217 = DIRECTION ( 'NONE',  ( 1.000000000000000000, 0.000000000000000000, -0.000000000000000000 ) ) ;
#218 = DIRECTION ( 'NONE',  ( 0.000000000000000000, 0.000000000000000000, 1.000000000000000000 ) ) ;
#219 = EDGE_CURVE ( 'NONE', #177, #267, #336, .T. ) ;
#220 = APPLICATION_CONTEXT ( 'automotive_design' ) ;
#221 = CARTESIAN_POINT ( 'NONE',  ( 0.000000000000000000, 0.000000000000000000, -3.250000000000000000 ) ) ;
#222 = DIRECTION ( 'NONE',  ( 0.000000000000000000, 0.000000000000000000, 1.000000000000000000 ) ) ;
#223 = PLANE ( 'NONE',  #126 ) ;
#224 = FACE_OUTER_BOUND ( 'NONE', #88, .T. ) ;
#225 = CARTESIAN_POINT ( 'NONE',  ( 0.000000000000000000, 0.000000000000000000, -3.250000000000000000 ) ) ;
#226 = VECTOR ( 'NONE', #134, 1000.000000000000000 ) ;
#227 = CARTESIAN_POINT ( 'NONE',  ( 0.000000000000000000, 0.000000000000000000, 4.250000000000000000 ) ) ;
#228 = ADVANCED_FACE ( 'NONE', ( #224 ), #135, .T. ) ;
#229 = DIRECTION ( 'NONE',  ( 1.000000000000000000, 0.000000000000000000, 0.000000000000000000 ) ) ;
#230 = PRODUCT_DEFINITION_CONTEXT ( 'detailed design', #330, 'design' ) ;
#231 = DIRECTION ( 'NONE',  ( -0.000000000000000000, -0.000000000000000000, -1.000000000000000000 ) ) ;
#232 = APPLICATION_PROTOCOL_DEFINITION ( 'draft international standard', 'automotive_design', 1998, #220 ) ;
#233 = ORIENTED_EDGE ( 'NONE', *, *, #25, .F. ) ;
#234 = EDGE_CURVE ( 'NONE', #24, #118, #257, .T. ) ;
#235 = ORIENTED_EDGE ( 'NONE', *, *, #305, .F. ) ;
#236 = ORIENTED_EDGE ( 'NONE', *, *, #310, .F. ) ;
#237 = ORIENTED_EDGE ( 'NONE', *, *, #263, .F. ) ;
#238 = STYLED_ITEM ( 'NONE', ( #19 ), #203 ) ;
#239 = ADVANCED_FACE ( 'NONE', ( #273 ), #193, .T. ) ;
#240 = DIRECTION ( 'NONE',  ( 0.000000000000000000, 0.000000000000000000, 1.000000000000000000 ) ) ;
#241 = ORIENTED_EDGE ( 'NONE', *, *, #159, .F. ) ;
#242 = VERTEX_POINT ( 'NONE', #298 ) ;
#243 = DIRECTION ( 'NONE',  ( 0.000000000000000000, 0.000000000000000000, 1.000000000000000000 ) ) ;
#244 = ADVANCED_FACE ( 'NONE', ( #42 ), #167, .T. ) ;
#245 = DIRECTION ( 'NONE',  ( 1.000000000000000000, 0.000000000000000000, 0.000000000000000000 ) ) ;
#246 = CARTESIAN_POINT ( 'NONE',  ( 0.000000000000000000, 0.000000000000000000, -3.250000000000000000 ) ) ;
#247 = FILL_AREA_STYLE_COLOUR ( '', #252 ) ;
#248 = CARTESIAN_POINT ( 'NONE',  ( -9.000000000000000000, 0.000000000000000000, 4.250000000000000000 ) ) ;
#249 = CARTESIAN_POINT ( 'NONE',  ( 0.000000000000000000, 0.000000000000000000, 4.250000000000000000 ) ) ;
#250 = CARTESIAN_POINT ( 'NONE',  ( 0.000000000000000000, 0.000000000000000000, -4.250000000000000000 ) ) ;
#251 = CARTESIAN_POINT ( 'NONE',  ( 9.000000000000000000, 1.102182119232617714E-15, 4.250000000000000000 ) ) ;
#252 = COLOUR_RGB ( '',0.7764705882352941346, 0.7568627450980391913, 0.7372549019607843590 ) ;
#253 = PRODUCT ( 'A602 Íàòÿæíîé àëþìèíèåâûé ðîëèê ðåìíÿ GT2, ïîä âàë 6ìì', 'A602 Íàòÿæíîé àëþìèíèåâûé ðîëèê ðåìíÿ GT2, ïîä âàë 6ìì', '', ( #312 ) ) ;
#254 = DIRECTION ( 'NONE',  ( -0.000000000000000000, -0.000000000000000000, -1.000000000000000000 ) ) ;
#255 = FACE_OUTER_BOUND ( 'NONE', #71, .T. ) ;
#256 = DIRECTION ( 'NONE',  ( 0.000000000000000000, 0.000000000000000000, 1.000000000000000000 ) ) ;
#257 = CIRCLE ( 'NONE', #57, 6.000000000000000888 ) ;
#258 = ORIENTED_EDGE ( 'NONE', *, *, #112, .F. ) ;
#259 = ORIENTED_EDGE ( 'NONE', *, *, #305, .T. ) ;
#260 = AXIS2_PLACEMENT_3D ( 'NONE', #364, #231, #278 ) ;
#261 = ORIENTED_EDGE ( 'NONE', *, *, #325, .F. ) ;
#262 = ORIENTED_EDGE ( 'NONE', *, *, #281, .F. ) ;
#263 = EDGE_CURVE ( 'NONE', #150, #67, #343, .T. ) ;
#264 = VERTEX_POINT ( 'NONE', #104 ) ;
#265 = AXIS2_PLACEMENT_3D ( 'NONE', #283, #151, #4 ) ;
#266 = CARTESIAN_POINT ( 'NONE',  ( 0.000000000000000000, 0.000000000000000000, -3.250000000000000000 ) ) ;
#267 = VERTEX_POINT ( 'NONE', #333 ) ;
#268 = LINE ( 'NONE', #72, #113 ) ;
#269 = DIRECTION ( 'NONE',  ( -1.000000000000000000, 0.000000000000000000, 0.000000000000000000 ) ) ;
#270 = CARTESIAN_POINT ( 'NONE',  ( 0.000000000000000000, 0.000000000000000000, 4.250000000000000000 ) ) ;
#271 = ADVANCED_FACE ( 'NONE', ( #79, #163 ), #223, .F. ) ;
#272 = DIRECTION ( 'NONE',  ( 1.000000000000000000, 0.000000000000000000, 0.000000000000000000 ) ) ;
#273 = FACE_OUTER_BOUND ( 'NONE', #284, .T. ) ;
#274 = CARTESIAN_POINT ( 'NONE',  ( 0.000000000000000000, 0.000000000000000000, 4.250000000000000000 ) ) ;
#275 = DIRECTION ( 'NONE',  ( 0.000000000000000000, 0.000000000000000000, 1.000000000000000000 ) ) ;
#276 = CARTESIAN_POINT ( 'NONE',  ( 0.000000000000000000, 0.000000000000000000, -4.250000000000000000 ) ) ;
#277 = ADVANCED_FACE ( 'NONE', ( #191 ), #299, .T. ) ;
#278 = DIRECTION ( 'NONE',  ( -1.000000000000000000, 0.000000000000000000, 0.000000000000000000 ) ) ;
#279 = AXIS2_PLACEMENT_3D ( 'NONE', #199, #307, #51 ) ;
#280 = APPLICATION_PROTOCOL_DEFINITION ( 'draft international standard', 'automotive_design', 1998, #330 ) ;
#281 = EDGE_CURVE ( 'NONE', #320, #11, #48, .T. ) ;
#282 = ORIENTED_EDGE ( 'NONE', *, *, #1, .T. ) ;
#283 = CARTESIAN_POINT ( 'NONE',  ( 0.000000000000000000, 0.000000000000000000, -4.250000000000000000 ) ) ;
#284 = EDGE_LOOP ( 'NONE', ( #237, #215, #59, #236 ) ) ;
#285 = ADVANCED_FACE ( 'NONE', ( #44 ), #295, .T. ) ;
#286 = CARTESIAN_POINT ( 'NONE',  ( -6.000000000000000888, 7.347880794884119736E-16, 3.250000000000000000 ) ) ;
#287 = EDGE_LOOP ( 'NONE', ( #158, #212 ) ) ;
#288 = ORIENTED_EDGE ( 'NONE', *, *, #296, .F. ) ;
#289 =( LENGTH_UNIT ( ) NAMED_UNIT ( * ) SI_UNIT ( .MILLI., .METRE. ) );
#290 = EDGE_LOOP ( 'NONE', ( #208, #29, #321, #352 ) ) ;
#291 = COLOUR_RGB ( '',0.7764705882352941346, 0.7568627450980391913, 0.7372549019607843590 ) ;
#292 = VECTOR ( 'NONE', #109, 1000.000000000000000 ) ;
#293 = MECHANICAL_DESIGN_GEOMETRIC_PRESENTATION_REPRESENTATION (  '', ( #238 ), #157 ) ;
#294 = CARTESIAN_POINT ( 'NONE',  ( -9.000000000000000000, 0.000000000000000000, 4.250000000000000000 ) ) ;
#295 = CYLINDRICAL_SURFACE ( 'NONE', #196, 9.000000000000000000 ) ;
#296 = EDGE_CURVE ( 'NONE', #118, #24, #147, .T. ) ;
#297 = SURFACE_STYLE_FILL_AREA ( #324 ) ;
#298 = CARTESIAN_POINT ( 'NONE',  ( -9.000000000000000000, 0.000000000000000000, -4.250000000000000000 ) ) ;
#299 = CYLINDRICAL_SURFACE ( 'NONE', #210, 9.000000000000000000 ) ;
#300 = DIRECTION ( 'NONE',  ( 1.000000000000000000, 0.000000000000000000, 0.000000000000000000 ) ) ;
#301 = DIRECTION ( 'NONE',  ( -1.000000000000000000, 0.000000000000000000, 0.000000000000000000 ) ) ;
#302 = SURFACE_STYLE_USAGE ( .BOTH. , #194 ) ;
#303 = CIRCLE ( 'NONE', #316, 9.000000000000000000 ) ;
#304 = AXIS2_PLACEMENT_3D ( 'NONE', #73, #361, #187 ) ;
#305 = EDGE_CURVE ( 'NONE', #11, #320, #27, .T. ) ;
#306 = CARTESIAN_POINT ( 'NONE',  ( -6.000000000000000888, 7.347880794884119736E-16, -3.250000000000000000 ) ) ;
#307 = DIRECTION ( 'NONE',  ( 0.000000000000000000, 0.000000000000000000, 1.000000000000000000 ) ) ;
#308 = CARTESIAN_POINT ( 'NONE',  ( 0.000000000000000000, 0.000000000000000000, -3.250000000000000000 ) ) ;
#309 = CIRCLE ( 'NONE', #349, 9.000000000000000000 ) ;
#310 = EDGE_CURVE ( 'NONE', #67, #177, #17, .T. ) ;
#311 = FACE_OUTER_BOUND ( 'NONE', #290, .T. ) ;
#312 = PRODUCT_CONTEXT ( 'NONE', #220, 'mechanical' ) ;
#313 = AXIS2_PLACEMENT_3D ( 'NONE', #331, #197, #359 ) ;
#314 = EDGE_LOOP ( 'NONE', ( #2, #322, #33, #37 ) ) ;
#315 = EDGE_CURVE ( 'NONE', #320, #8, #76, .T. ) ;
#316 = AXIS2_PLACEMENT_3D ( 'NONE', #227, #275, #21 ) ;
#317 = ORIENTED_EDGE ( 'NONE', *, *, #356, .T. ) ;
#318 = AXIS2_PLACEMENT_3D ( 'NONE', #270, #189, #301 ) ;
#319 = ORIENTED_EDGE ( 'NONE', *, *, #325, .T. ) ;
#320 = VERTEX_POINT ( 'NONE', #7 ) ;
#321 = ORIENTED_EDGE ( 'NONE', *, *, #30, .T. ) ;
#322 = ORIENTED_EDGE ( 'NONE', *, *, #332, .T. ) ;
#323 = ORIENTED_EDGE ( 'NONE', *, *, #263, .T. ) ;
#324 = FILL_AREA_STYLE ('',( #216 ) ) ;
#325 = EDGE_CURVE ( 'NONE', #353, #130, #108, .T. ) ;
#326 = DIRECTION ( 'NONE',  ( -0.000000000000000000, -0.000000000000000000, -1.000000000000000000 ) ) ;
#327 = CARTESIAN_POINT ( 'NONE',  ( -9.000000000000000000, 0.000000000000000000, -3.250000000000000000 ) ) ;
#328 = DIRECTION ( 'NONE',  ( -0.000000000000000000, -0.000000000000000000, -1.000000000000000000 ) ) ;
#329 = FACE_OUTER_BOUND ( 'NONE', #89, .T. ) ;
#330 = APPLICATION_CONTEXT ( 'automotive_design' ) ;
#331 = CARTESIAN_POINT ( 'NONE',  ( 0.000000000000000000, 0.000000000000000000, 4.250000000000000000 ) ) ;
#332 = EDGE_CURVE ( 'NONE', #155, #347, #192, .T. ) ;
#333 = CARTESIAN_POINT ( 'NONE',  ( 9.000000000000000000, 1.102182119232617714E-15, 3.250000000000000000 ) ) ;
#334 = AXIS2_PLACEMENT_3D ( 'NONE', #266, #243, #34 ) ;
#335 = CARTESIAN_POINT ( 'NONE',  ( 6.000000000000000888, 0.000000000000000000, 3.250000000000000000 ) ) ;
#336 = CIRCLE ( 'NONE', #142, 9.000000000000000000 ) ;
#337 = DIRECTION ( 'NONE',  ( 1.000000000000000000, 0.000000000000000000, 0.000000000000000000 ) ) ;
#338 = FACE_BOUND ( 'NONE', #94, .T. ) ;
#339 = DIRECTION ( 'NONE',  ( 1.000000000000000000, 0.000000000000000000, 0.000000000000000000 ) ) ;
#340 = ADVANCED_FACE ( 'NONE', ( #329, #160 ), #45, .F. ) ;
#341 = EDGE_LOOP ( 'NONE', ( #235, #262 ) ) ;
#342 = CLOSED_SHELL ( 'NONE', ( #244, #58, #239, #277, #285, #176, #340, #228, #132, #121, #271, #117 ) ) ;
#343 = CIRCLE ( 'NONE', #206, 9.000000000000000000 ) ;
#344 = ORIENTED_EDGE ( 'NONE', *, *, #310, .T. ) ;
#345 = EDGE_CURVE ( 'NONE', #355, #242, #131, .T. ) ;
#346 = ORIENTED_EDGE ( 'NONE', *, *, #332, .F. ) ;
#347 = VERTEX_POINT ( 'NONE', #183 ) ;
#348 = VECTOR ( 'NONE', #188, 1000.000000000000000 ) ;
#349 = AXIS2_PLACEMENT_3D ( 'NONE', #250, #201, #22 ) ;
#350 = ORIENTED_EDGE ( 'NONE', *, *, #106, .T. ) ;
#351 = AXIS2_PLACEMENT_3D ( 'NONE', #12, #133, #245 ) ;
#352 = ORIENTED_EDGE ( 'NONE', *, *, #41, .F. ) ;
#353 = VERTEX_POINT ( 'NONE', #286 ) ;
#354 = CARTESIAN_POINT ( 'NONE',  ( 6.000000000000000888, 0.000000000000000000, -3.250000000000000000 ) ) ;
#355 = VERTEX_POINT ( 'NONE', #327 ) ;
#356 = EDGE_CURVE ( 'NONE', #24, #130, #214, .T. ) ;
#357 =( NAMED_UNIT ( * ) SI_UNIT ( $, .STERADIAN. ) SOLID_ANGLE_UNIT ( ) );
#358 = CARTESIAN_POINT ( 'NONE',  ( 0.000000000000000000, 0.000000000000000000, 4.250000000000000000 ) ) ;
#359 = DIRECTION ( 'NONE',  ( -1.000000000000000000, 0.000000000000000000, 0.000000000000000000 ) ) ;
#360 = DIRECTION ( 'NONE',  ( 1.000000000000000000, 0.000000000000000000, -0.000000000000000000 ) ) ;
#361 = DIRECTION ( 'NONE',  ( 0.000000000000000000, 0.000000000000000000, 1.000000000000000000 ) ) ;
#362 = DIRECTION ( 'NONE',  ( 0.000000000000000000, 0.000000000000000000, 1.000000000000000000 ) ) ;
#363 = DIRECTION ( 'NONE',  ( 0.000000000000000000, 0.000000000000000000, 1.000000000000000000 ) ) ;
#364 = CARTESIAN_POINT ( 'NONE',  ( 0.000000000000000000, 0.000000000000000000, 4.250000000000000000 ) ) ;
#365 = CARTESIAN_POINT ( 'NONE',  ( 9.000000000000000000, 1.102182119232617714E-15, 4.250000000000000000 ) ) ;
#366 = CARTESIAN_POINT ( 'NONE',  ( 0.000000000000000000, 0.000000000000000000, -4.250000000000000000 ) ) ;
#367 = EDGE_CURVE ( 'NONE', #355, #155, #204, .T. ) ;
#368 = CARTESIAN_POINT ( 'NONE',  ( 3.000000000000000444, 3.673940397442060361E-16, -4.250000000000000000 ) ) ;
#369 = FACE_OUTER_BOUND ( 'NONE', #3, .T. ) ;
#370 = AXIS2_PLACEMENT_3D ( 'NONE', #366, #143, #339 ) ;
#371 = ORIENTED_EDGE ( 'NONE', *, *, #106, .F. ) ;
#372 = EDGE_CURVE ( 'NONE', #118, #353, #268, .T. ) ;
#373 = PRESENTATION_LAYER_ASSIGNMENT (  '', '', ( #55 ) ) ;
#374 = ORIENTED_EDGE ( 'NONE', *, *, #345, .T. ) ;
ENDSEC;
END-ISO-10303-21;
