ISO-10303-21;
HEADER;
FILE_DESCRIPTION (( 'STEP AP214' ),
    '1' );
FILE_NAME ('A137  Âûñîêîòî÷íàÿ ïðîêëàäêà O 5,3  O 8.STEP',
    '2019-10-10T09:31:39',
    ( 'Windows User' ),
    ( '' ),
    'SwSTEP 2.0',
    'SolidWorks 2019',
    '' );
FILE_SCHEMA (( 'AUTOMOTIVE_DESIGN' ));
ENDSEC;

DATA;
#1 = SHAPE_DEFINITION_REPRESENTATION ( #122, #14 ) ;
#2 = UNCERTAINTY_MEASURE_WITH_UNIT (LENGTH_MEASURE( 1.000000000000000082E-05 ), #169, 'distance_accuracy_value', 'NONE');
#3 = CARTESIAN_POINT ( 'NONE',  ( 2.649999999999999911, 3.245314017740485962E-16, 1.000000000000000000 ) ) ;
#4 = DIRECTION ( 'NONE',  ( -1.000000000000000000, 0.0000000000000000000, 0.0000000000000000000 ) ) ;
#5 = VERTEX_POINT ( 'NONE', #107 ) ;
#6 = DIRECTION ( 'NONE',  ( 0.0000000000000000000, 0.0000000000000000000, 1.000000000000000000 ) ) ;
#7 = ORIENTED_EDGE ( 'NONE', *, *, #195, .T. ) ;
#8 = DIRECTION ( 'NONE',  ( -0.0000000000000000000, -0.0000000000000000000, -1.000000000000000000 ) ) ;
#9 = ORIENTED_EDGE ( 'NONE', *, *, #160, .T. ) ;
#10 = DIRECTION ( 'NONE',  ( -0.0000000000000000000, -0.0000000000000000000, -1.000000000000000000 ) ) ;
#11 = ADVANCED_FACE ( 'NONE', ( #136 ), #194, .T. ) ;
#12 = LINE ( 'NONE', #38, #165 ) ;
#13 = ORIENTED_EDGE ( 'NONE', *, *, #74, .T. ) ;
#14 = ADVANCED_BREP_SHAPE_REPRESENTATION ( 'A137  Tv¸þúþªþ¢ýð  ÿ¨þúûðôúð O 5,3  O 8', ( #63, #35 ), #56 ) ;
#15 = CIRCLE ( 'NONE', #64, 4.000000000000000000 ) ;
#16 = AXIS2_PLACEMENT_3D ( 'NONE', #58, #173, #4 ) ;
#17 =( GEOMETRIC_REPRESENTATION_CONTEXT ( 3 ) GLOBAL_UNCERTAINTY_ASSIGNED_CONTEXT ( ( #2 ) ) GLOBAL_UNIT_ASSIGNED_CONTEXT ( ( #169, #89, #170 ) ) REPRESENTATION_CONTEXT ( 'NONE', 'WORKASPACE' ) );
#18 = ORIENTED_EDGE ( 'NONE', *, *, #139, .T. ) ;
#19 = CARTESIAN_POINT ( 'NONE',  ( 0.0000000000000000000, 0.0000000000000000000, 0.0000000000000000000 ) ) ;
#20 = VECTOR ( 'NONE', #60, 1000.000000000000000 ) ;
#21 = CIRCLE ( 'NONE', #28, 2.649999999999999911 ) ;
#22 = PRODUCT_DEFINITION_FORMATION_WITH_SPECIFIED_SOURCE ( 'ANY', '', #103, .NOT_KNOWN. ) ;
#23 = DIRECTION ( 'NONE',  ( 1.000000000000000000, 0.0000000000000000000, 0.0000000000000000000 ) ) ;
#24 = FACE_OUTER_BOUND ( 'NONE', #201, .T. ) ;
#25 = ORIENTED_EDGE ( 'NONE', *, *, #152, .T. ) ;
#26 = AXIS2_PLACEMENT_3D ( 'NONE', #54, #124, #68 ) ;
#27 = CARTESIAN_POINT ( 'NONE',  ( 0.0000000000000000000, 0.0000000000000000000, 1.000000000000000000 ) ) ;
#28 = AXIS2_PLACEMENT_3D ( 'NONE', #179, #76, #23 ) ;
#29 = CARTESIAN_POINT ( 'NONE',  ( 0.0000000000000000000, 0.0000000000000000000, 1.000000000000000000 ) ) ;
#30 = DIRECTION ( 'NONE',  ( 1.000000000000000000, 0.0000000000000000000, 0.0000000000000000000 ) ) ;
#31 = VERTEX_POINT ( 'NONE', #192 ) ;
#32 = EDGE_CURVE ( 'NONE', #50, #52, #15, .T. ) ;
#33 =( NAMED_UNIT ( * ) PLANE_ANGLE_UNIT ( ) SI_UNIT ( $, .RADIAN. ) );
#34 = CIRCLE ( 'NONE', #90, 2.649999999999999911 ) ;
#35 = AXIS2_PLACEMENT_3D ( 'NONE', #91, #151, #73 ) ;
#36 = ORIENTED_EDGE ( 'NONE', *, *, #153, .F. ) ;
#37 = EDGE_CURVE ( 'NONE', #207, #50, #12, .T. ) ;
#38 = CARTESIAN_POINT ( 'NONE',  ( 4.000000000000000000, 4.898587196589412829E-16, 1.000000000000000000 ) ) ;
#39 = CIRCLE ( 'NONE', #183, 2.649999999999999911 ) ;
#40 = FILL_AREA_STYLE ('',( #123 ) ) ;
#41 = CARTESIAN_POINT ( 'NONE',  ( -2.649999999999999911, 0.0000000000000000000, 1.000000000000000000 ) ) ;
#42 = DIRECTION ( 'NONE',  ( 1.000000000000000000, 0.0000000000000000000, 0.0000000000000000000 ) ) ;
#43 = VERTEX_POINT ( 'NONE', #135 ) ;
#44 = DIRECTION ( 'NONE',  ( 0.0000000000000000000, 0.0000000000000000000, 1.000000000000000000 ) ) ;
#45 = ORIENTED_EDGE ( 'NONE', *, *, #195, .F. ) ;
#46 = LINE ( 'NONE', #41, #20 ) ;
#47 = CARTESIAN_POINT ( 'NONE',  ( 0.0000000000000000000, 0.0000000000000000000, 0.0000000000000000000 ) ) ;
#48 = ADVANCED_FACE ( 'NONE', ( #88, #177 ), #105, .F. ) ;
#49 = APPLICATION_CONTEXT ( 'automotive_design' ) ;
#50 = VERTEX_POINT ( 'NONE', #53 ) ;
#51 = DIRECTION ( 'NONE',  ( 0.0000000000000000000, 0.0000000000000000000, 1.000000000000000000 ) ) ;
#52 = VERTEX_POINT ( 'NONE', #166 ) ;
#53 = CARTESIAN_POINT ( 'NONE',  ( 4.000000000000000000, 4.898587196589412829E-16, 0.0000000000000000000 ) ) ;
#54 = CARTESIAN_POINT ( 'NONE',  ( 0.0000000000000000000, 0.0000000000000000000, 1.000000000000000000 ) ) ;
#55 = ORIENTED_EDGE ( 'NONE', *, *, #212, .F. ) ;
#56 =( GEOMETRIC_REPRESENTATION_CONTEXT ( 3 ) GLOBAL_UNCERTAINTY_ASSIGNED_CONTEXT ( ( #93 ) ) GLOBAL_UNIT_ASSIGNED_CONTEXT ( ( #176, #33, #134 ) ) REPRESENTATION_CONTEXT ( 'NONE', 'WORKASPACE' ) );
#57 = FILL_AREA_STYLE ('',( #198 ) ) ;
#58 = CARTESIAN_POINT ( 'NONE',  ( 0.0000000000000000000, 0.0000000000000000000, 1.000000000000000000 ) ) ;
#59 = AXIS2_PLACEMENT_3D ( 'NONE', #27, #190, #174 ) ;
#60 = DIRECTION ( 'NONE',  ( -0.0000000000000000000, -0.0000000000000000000, -1.000000000000000000 ) ) ;
#61 = FACE_OUTER_BOUND ( 'NONE', #102, .T. ) ;
#62 = ORIENTED_EDGE ( 'NONE', *, *, #37, .T. ) ;
#63 = MANIFOLD_SOLID_BREP ( 'Áîáûøêà-Âûòÿíóòü1', #98 ) ;
#64 = AXIS2_PLACEMENT_3D ( 'NONE', #19, #121, #180 ) ;
#65 = CARTESIAN_POINT ( 'NONE',  ( 2.649999999999999911, 3.245314017740485962E-16, 0.0000000000000000000 ) ) ;
#66 = CIRCLE ( 'NONE', #181, 2.649999999999999911 ) ;
#67 = EDGE_CURVE ( 'NONE', #31, #182, #21, .T. ) ;
#68 = DIRECTION ( 'NONE',  ( -1.000000000000000000, 0.0000000000000000000, 0.0000000000000000000 ) ) ;
#69 = AXIS2_PLACEMENT_3D ( 'NONE', #175, #127, #30 ) ;
#70 = CIRCLE ( 'NONE', #106, 4.000000000000000000 ) ;
#71 = ORIENTED_EDGE ( 'NONE', *, *, #74, .F. ) ;
#72 = SURFACE_SIDE_STYLE ('',( #148 ) ) ;
#73 = DIRECTION ( 'NONE',  ( 1.000000000000000000, 0.0000000000000000000, 0.0000000000000000000 ) ) ;
#74 = EDGE_CURVE ( 'NONE', #182, #31, #34, .T. ) ;
#75 = SURFACE_SIDE_STYLE ('',( #214 ) ) ;
#76 = DIRECTION ( 'NONE',  ( 0.0000000000000000000, 0.0000000000000000000, 1.000000000000000000 ) ) ;
#77 = COLOUR_RGB ( '',0.5294117647058823595, 0.5490196078431373028, 0.5490196078431373028 ) ;
#78 = VERTEX_POINT ( 'NONE', #65 ) ;
#79 = DIRECTION ( 'NONE',  ( 0.0000000000000000000, 0.0000000000000000000, 1.000000000000000000 ) ) ;
#80 = EDGE_LOOP ( 'NONE', ( #156, #128, #9, #162 ) ) ;
#81 = DIRECTION ( 'NONE',  ( -0.0000000000000000000, -0.0000000000000000000, -1.000000000000000000 ) ) ;
#82 = ORIENTED_EDGE ( 'NONE', *, *, #152, .F. ) ;
#83 =( GEOMETRIC_REPRESENTATION_CONTEXT ( 3 ) GLOBAL_UNCERTAINTY_ASSIGNED_CONTEXT ( ( #114 ) ) GLOBAL_UNIT_ASSIGNED_CONTEXT ( ( #149, #211, #197 ) ) REPRESENTATION_CONTEXT ( 'NONE', 'WORKASPACE' ) );
#84 = PRESENTATION_LAYER_ASSIGNMENT (  '', '', ( #206 ) ) ;
#85 = DIRECTION ( 'NONE',  ( -0.0000000000000000000, -0.0000000000000000000, -1.000000000000000000 ) ) ;
#86 = EDGE_LOOP ( 'NONE', ( #13, #208, #45, #82 ) ) ;
#87 = DIRECTION ( 'NONE',  ( 1.000000000000000000, 0.0000000000000000000, -0.0000000000000000000 ) ) ;
#88 = FACE_OUTER_BOUND ( 'NONE', #104, .T. ) ;
#89 =( NAMED_UNIT ( * ) PLANE_ANGLE_UNIT ( ) SI_UNIT ( $, .RADIAN. ) );
#90 = AXIS2_PLACEMENT_3D ( 'NONE', #99, #6, #130 ) ;
#91 = CARTESIAN_POINT ( 'NONE',  ( 0.0000000000000000000, 0.0000000000000000000, 0.0000000000000000000 ) ) ;
#92 = APPLICATION_PROTOCOL_DEFINITION ( 'draft international standard', 'automotive_design', 1998, #49 ) ;
#93 = UNCERTAINTY_MEASURE_WITH_UNIT (LENGTH_MEASURE( 1.000000000000000082E-05 ), #176, 'distance_accuracy_value', 'NONE');
#94 = CYLINDRICAL_SURFACE ( 'NONE', #142, 2.649999999999999911 ) ;
#95 = EDGE_LOOP ( 'NONE', ( #97, #62, #140, #147 ) ) ;
#96 = CARTESIAN_POINT ( 'NONE',  ( -2.649999999999999911, 0.0000000000000000000, 1.000000000000000000 ) ) ;
#97 = ORIENTED_EDGE ( 'NONE', *, *, #139, .F. ) ;
#98 = CLOSED_SHELL ( 'NONE', ( #100, #11, #113, #48, #129, #126 ) ) ;
#99 = CARTESIAN_POINT ( 'NONE',  ( 0.0000000000000000000, 0.0000000000000000000, 1.000000000000000000 ) ) ;
#100 = ADVANCED_FACE ( 'NONE', ( #161 ), #94, .F. ) ;
#101 = CARTESIAN_POINT ( 'NONE',  ( -4.000000000000000000, 0.0000000000000000000, 1.000000000000000000 ) ) ;
#102 = EDGE_LOOP ( 'NONE', ( #209, #171, #25, #55 ) ) ;
#103 = PRODUCT ( 'A137  Âûñîêîòî÷íàÿ ïðîêëàäêà O 5,3  O 8', 'A137  Âûñîêîòî÷íàÿ ïðîêëàäêà O 5,3  O 8', '', ( #150 ) ) ;
#104 = EDGE_LOOP ( 'NONE', ( #36, #164 ) ) ;
#105 = PLANE ( 'NONE',  #125 ) ;
#106 = AXIS2_PLACEMENT_3D ( 'NONE', #47, #116, #111 ) ;
#107 = CARTESIAN_POINT ( 'NONE',  ( -4.000000000000000000, 0.0000000000000000000, 1.000000000000000000 ) ) ;
#108 = APPLICATION_PROTOCOL_DEFINITION ( 'draft international standard', 'automotive_design', 1998, #158 ) ;
#109 = PRODUCT_DEFINITION ( 'UNKNOWN', '', #22, #131 ) ;
#110 = SURFACE_STYLE_USAGE ( .BOTH. , #75 ) ;
#111 = DIRECTION ( 'NONE',  ( 1.000000000000000000, 0.0000000000000000000, 0.0000000000000000000 ) ) ;
#112 = CARTESIAN_POINT ( 'NONE',  ( 4.000000000000000000, 4.898587196589412829E-16, 1.000000000000000000 ) ) ;
#113 = ADVANCED_FACE ( 'NONE', ( #24, #187 ), #144, .T. ) ;
#114 = UNCERTAINTY_MEASURE_WITH_UNIT (LENGTH_MEASURE( 1.000000000000000082E-05 ), #149, 'distance_accuracy_value', 'NONE');
#115 = CIRCLE ( 'NONE', #189, 4.000000000000000000 ) ;
#116 = DIRECTION ( 'NONE',  ( 0.0000000000000000000, 0.0000000000000000000, 1.000000000000000000 ) ) ;
#117 = LINE ( 'NONE', #101, #168 ) ;
#118 = CARTESIAN_POINT ( 'NONE',  ( 0.0000000000000000000, 0.0000000000000000000, 0.0000000000000000000 ) ) ;
#119 = COLOUR_RGB ( '',0.5294117647058823595, 0.5490196078431373028, 0.5490196078431373028 ) ;
#120 = AXIS2_PLACEMENT_3D ( 'NONE', #200, #44, #202 ) ;
#121 = DIRECTION ( 'NONE',  ( 0.0000000000000000000, 0.0000000000000000000, 1.000000000000000000 ) ) ;
#122 = PRODUCT_DEFINITION_SHAPE ( 'NONE', 'NONE',  #109 ) ;
#123 = FILL_AREA_STYLE_COLOUR ( '', #119 ) ;
#124 = DIRECTION ( 'NONE',  ( -0.0000000000000000000, -0.0000000000000000000, -1.000000000000000000 ) ) ;
#125 = AXIS2_PLACEMENT_3D ( 'NONE', #193, #167, #87 ) ;
#126 = ADVANCED_FACE ( 'NONE', ( #61 ), #185, .F. ) ;
#127 = DIRECTION ( 'NONE',  ( 0.0000000000000000000, 0.0000000000000000000, 1.000000000000000000 ) ) ;
#128 = ORIENTED_EDGE ( 'NONE', *, *, #191, .F. ) ;
#129 = ADVANCED_FACE ( 'NONE', ( #172 ), #154, .T. ) ;
#130 = DIRECTION ( 'NONE',  ( 1.000000000000000000, 0.0000000000000000000, 0.0000000000000000000 ) ) ;
#131 = PRODUCT_DEFINITION_CONTEXT ( 'detailed design', #49, 'design' ) ;
#132 = VECTOR ( 'NONE', #81, 1000.000000000000000 ) ;
#133 = DIRECTION ( 'NONE',  ( -1.000000000000000000, 0.0000000000000000000, 0.0000000000000000000 ) ) ;
#134 =( NAMED_UNIT ( * ) SI_UNIT ( $, .STERADIAN. ) SOLID_ANGLE_UNIT ( ) );
#135 = CARTESIAN_POINT ( 'NONE',  ( -2.649999999999999911, 0.0000000000000000000, 0.0000000000000000000 ) ) ;
#136 = FACE_OUTER_BOUND ( 'NONE', #95, .T. ) ;
#137 = SURFACE_STYLE_USAGE ( .BOTH. , #72 ) ;
#138 = CARTESIAN_POINT ( 'NONE',  ( 0.0000000000000000000, 0.0000000000000000000, 1.000000000000000000 ) ) ;
#139 = EDGE_CURVE ( 'NONE', #207, #5, #115, .T. ) ;
#140 = ORIENTED_EDGE ( 'NONE', *, *, #32, .T. ) ;
#141 = PRESENTATION_LAYER_ASSIGNMENT (  '', '', ( #145 ) ) ;
#142 = AXIS2_PLACEMENT_3D ( 'NONE', #138, #10, #133 ) ;
#143 = ORIENTED_EDGE ( 'NONE', *, *, #212, .T. ) ;
#144 = PLANE ( 'NONE',  #120 ) ;
#145 = STYLED_ITEM ( 'NONE', ( #196 ), #63 ) ;
#146 = ORIENTED_EDGE ( 'NONE', *, *, #67, .F. ) ;
#147 = ORIENTED_EDGE ( 'NONE', *, *, #160, .F. ) ;
#148 = SURFACE_STYLE_FILL_AREA ( #40 ) ;
#149 =( LENGTH_UNIT ( ) NAMED_UNIT ( * ) SI_UNIT ( .MILLI., .METRE. ) );
#150 = PRODUCT_CONTEXT ( 'NONE', #158, 'mechanical' ) ;
#151 = DIRECTION ( 'NONE',  ( 0.0000000000000000000, 0.0000000000000000000, 1.000000000000000000 ) ) ;
#152 = EDGE_CURVE ( 'NONE', #182, #43, #46, .T. ) ;
#153 = EDGE_CURVE ( 'NONE', #52, #50, #70, .T. ) ;
#154 = CYLINDRICAL_SURFACE ( 'NONE', #59, 4.000000000000000000 ) ;
#155 = CARTESIAN_POINT ( 'NONE',  ( 0.0000000000000000000, 0.0000000000000000000, 0.0000000000000000000 ) ) ;
#156 = ORIENTED_EDGE ( 'NONE', *, *, #37, .F. ) ;
#157 = MECHANICAL_DESIGN_GEOMETRIC_PRESENTATION_REPRESENTATION (  '', ( #145 ), #83 ) ;
#158 = APPLICATION_CONTEXT ( 'automotive_design' ) ;
#159 = LINE ( 'NONE', #3, #132 ) ;
#160 = EDGE_CURVE ( 'NONE', #5, #52, #117, .T. ) ;
#161 = FACE_OUTER_BOUND ( 'NONE', #86, .T. ) ;
#162 = ORIENTED_EDGE ( 'NONE', *, *, #153, .T. ) ;
#163 = DIRECTION ( 'NONE',  ( 1.000000000000000000, 0.0000000000000000000, 0.0000000000000000000 ) ) ;
#164 = ORIENTED_EDGE ( 'NONE', *, *, #32, .F. ) ;
#165 = VECTOR ( 'NONE', #85, 1000.000000000000000 ) ;
#166 = CARTESIAN_POINT ( 'NONE',  ( -4.000000000000000000, 0.0000000000000000000, 0.0000000000000000000 ) ) ;
#167 = DIRECTION ( 'NONE',  ( 0.0000000000000000000, 0.0000000000000000000, 1.000000000000000000 ) ) ;
#168 = VECTOR ( 'NONE', #8, 1000.000000000000000 ) ;
#169 =( LENGTH_UNIT ( ) NAMED_UNIT ( * ) SI_UNIT ( .MILLI., .METRE. ) );
#170 =( NAMED_UNIT ( * ) SI_UNIT ( $, .STERADIAN. ) SOLID_ANGLE_UNIT ( ) );
#171 = ORIENTED_EDGE ( 'NONE', *, *, #67, .T. ) ;
#172 = FACE_OUTER_BOUND ( 'NONE', #80, .T. ) ;
#173 = DIRECTION ( 'NONE',  ( -0.0000000000000000000, -0.0000000000000000000, -1.000000000000000000 ) ) ;
#174 = DIRECTION ( 'NONE',  ( -1.000000000000000000, 0.0000000000000000000, 0.0000000000000000000 ) ) ;
#175 = CARTESIAN_POINT ( 'NONE',  ( 0.0000000000000000000, 0.0000000000000000000, 1.000000000000000000 ) ) ;
#176 =( LENGTH_UNIT ( ) NAMED_UNIT ( * ) SI_UNIT ( .MILLI., .METRE. ) );
#177 = FACE_BOUND ( 'NONE', #204, .T. ) ;
#178 = EDGE_CURVE ( 'NONE', #31, #78, #159, .T. ) ;
#179 = CARTESIAN_POINT ( 'NONE',  ( 0.0000000000000000000, 0.0000000000000000000, 1.000000000000000000 ) ) ;
#180 = DIRECTION ( 'NONE',  ( 1.000000000000000000, 0.0000000000000000000, 0.0000000000000000000 ) ) ;
#181 = AXIS2_PLACEMENT_3D ( 'NONE', #118, #51, #163 ) ;
#182 = VERTEX_POINT ( 'NONE', #96 ) ;
#183 = AXIS2_PLACEMENT_3D ( 'NONE', #155, #186, #42 ) ;
#184 = CIRCLE ( 'NONE', #69, 4.000000000000000000 ) ;
#185 = CYLINDRICAL_SURFACE ( 'NONE', #16, 2.649999999999999911 ) ;
#186 = DIRECTION ( 'NONE',  ( 0.0000000000000000000, 0.0000000000000000000, 1.000000000000000000 ) ) ;
#187 = FACE_BOUND ( 'NONE', #205, .T. ) ;
#188 = DIRECTION ( 'NONE',  ( 1.000000000000000000, 0.0000000000000000000, 0.0000000000000000000 ) ) ;
#189 = AXIS2_PLACEMENT_3D ( 'NONE', #29, #79, #188 ) ;
#190 = DIRECTION ( 'NONE',  ( -0.0000000000000000000, -0.0000000000000000000, -1.000000000000000000 ) ) ;
#191 = EDGE_CURVE ( 'NONE', #5, #207, #184, .T. ) ;
#192 = CARTESIAN_POINT ( 'NONE',  ( 2.649999999999999911, 3.245314017740485962E-16, 1.000000000000000000 ) ) ;
#193 = CARTESIAN_POINT ( 'NONE',  ( 0.0000000000000000000, 0.0000000000000000000, 0.0000000000000000000 ) ) ;
#194 = CYLINDRICAL_SURFACE ( 'NONE', #26, 4.000000000000000000 ) ;
#195 = EDGE_CURVE ( 'NONE', #43, #78, #39, .T. ) ;
#196 = PRESENTATION_STYLE_ASSIGNMENT (( #137 ) ) ;
#197 =( NAMED_UNIT ( * ) SI_UNIT ( $, .STERADIAN. ) SOLID_ANGLE_UNIT ( ) );
#198 = FILL_AREA_STYLE_COLOUR ( '', #77 ) ;
#199 = MECHANICAL_DESIGN_GEOMETRIC_PRESENTATION_REPRESENTATION (  '', ( #206 ), #17 ) ;
#200 = CARTESIAN_POINT ( 'NONE',  ( 0.0000000000000000000, 0.0000000000000000000, 1.000000000000000000 ) ) ;
#201 = EDGE_LOOP ( 'NONE', ( #210, #18 ) ) ;
#202 = DIRECTION ( 'NONE',  ( 1.000000000000000000, 0.0000000000000000000, -0.0000000000000000000 ) ) ;
#203 = PRODUCT_RELATED_PRODUCT_CATEGORY ( 'part', '', ( #103 ) ) ;
#204 = EDGE_LOOP ( 'NONE', ( #7, #143 ) ) ;
#205 = EDGE_LOOP ( 'NONE', ( #71, #146 ) ) ;
#206 = STYLED_ITEM ( 'NONE', ( #213 ), #14 ) ;
#207 = VERTEX_POINT ( 'NONE', #112 ) ;
#208 = ORIENTED_EDGE ( 'NONE', *, *, #178, .T. ) ;
#209 = ORIENTED_EDGE ( 'NONE', *, *, #178, .F. ) ;
#210 = ORIENTED_EDGE ( 'NONE', *, *, #191, .T. ) ;
#211 =( NAMED_UNIT ( * ) PLANE_ANGLE_UNIT ( ) SI_UNIT ( $, .RADIAN. ) );
#212 = EDGE_CURVE ( 'NONE', #78, #43, #66, .T. ) ;
#213 = PRESENTATION_STYLE_ASSIGNMENT (( #110 ) ) ;
#214 = SURFACE_STYLE_FILL_AREA ( #57 ) ;
ENDSEC;
END-ISO-10303-21;
