ISO-10303-21;
HEADER;
FILE_DESCRIPTION (( 'STEP AP214' ),
    '1' );
FILE_NAME ('A203 Äèñòàíöèîííàÿ âòóëêà 5õ9 ìì.STEP',
    '2020-10-07T09:06:33',
    ( 'Windows User' ),
    ( '' ),
    'SwSTEP 2.0',
    'SolidWorks 2020',
    '' );
FILE_SCHEMA (( 'AUTOMOTIVE_DESIGN' ));
ENDSEC;

DATA;
#1 = DIRECTION ( 'NONE',  ( -1.000000000000000000, -0.0000000000000000000, -0.0000000000000000000 ) ) ;
#2 = STYLED_ITEM ( 'NONE', ( #258 ), #118 ) ;
#3 = EDGE_CURVE ( 'NONE', #277, #46, #43, .T. ) ;
#4 = LINE ( 'NONE', #82, #232 ) ;
#5 = CARTESIAN_POINT ( 'NONE',  ( 8.499999999999998224, 0.0000000000000000000, 2.600000000000000089 ) ) ;
#6 = CARTESIAN_POINT ( 'NONE',  ( 9.000000000000000000, 0.0000000000000000000, 0.0000000000000000000 ) ) ;
#7 = CIRCLE ( 'NONE', #55, 5.000000000000000000 ) ;
#8 = ORIENTED_EDGE ( 'NONE', *, *, #123, .F. ) ;
#9 = ADVANCED_FACE ( 'NONE', ( #251 ), #19, .T. ) ;
#10 = VERTEX_POINT ( 'NONE', #244 ) ;
#11 = FACE_OUTER_BOUND ( 'NONE', #104, .T. ) ;
#12 = EDGE_CURVE ( 'NONE', #215, #328, #154, .T. ) ;
#13 = CARTESIAN_POINT ( 'NONE',  ( 0.0000000000000000000, 0.0000000000000000000, 0.0000000000000000000 ) ) ;
#14 = DIRECTION ( 'NONE',  ( 1.000000000000000000, 0.0000000000000000000, 0.0000000000000000000 ) ) ;
#15 = PRODUCT ( 'A203 Äèñòàíöèîííàÿ âòóëêà 5õ9 ìì', 'A203 Äèñòàíöèîííàÿ âòóëêà 5õ9 ìì', '', ( #329 ) ) ;
#16 =( NAMED_UNIT ( * ) SI_UNIT ( $, .STERADIAN. ) SOLID_ANGLE_UNIT ( ) );
#17 = VERTEX_POINT ( 'NONE', #73 ) ;
#18 = VECTOR ( 'NONE', #187, 1000.000000000000000 ) ;
#19 = CONICAL_SURFACE ( 'NONE', #300, 5.000000000000000000, 0.7853981633974528309 ) ;
#20 = ADVANCED_FACE ( 'NONE', ( #140 ), #101, .F. ) ;
#21 = APPLICATION_PROTOCOL_DEFINITION ( 'draft international standard', 'automotive_design', 1998, #278 ) ;
#22 = ORIENTED_EDGE ( 'NONE', *, *, #311, .T. ) ;
#23 = EDGE_LOOP ( 'NONE', ( #183, #330 ) ) ;
#24 = CARTESIAN_POINT ( 'NONE',  ( 0.0000000000000000000, 0.0000000000000000000, 2.600000000000000089 ) ) ;
#25 = FILL_AREA_STYLE_COLOUR ( '', #226 ) ;
#26 = AXIS2_PLACEMENT_3D ( 'NONE', #227, #138, #83 ) ;
#27 = CIRCLE ( 'NONE', #319, 5.000000000000000000 ) ;
#28 = CARTESIAN_POINT ( 'NONE',  ( 0.0000000000000000000, 0.0000000000000000000, 0.0000000000000000000 ) ) ;
#29 =( NAMED_UNIT ( * ) PLANE_ANGLE_UNIT ( ) SI_UNIT ( $, .RADIAN. ) );
#30 = AXIS2_PLACEMENT_3D ( 'NONE', #127, #348, #189 ) ;
#31 = DIRECTION ( 'NONE',  ( 1.000000000000000000, 0.0000000000000000000, 0.0000000000000000000 ) ) ;
#32 = DIRECTION ( 'NONE',  ( 0.0000000000000000000, 0.0000000000000000000, 1.000000000000000000 ) ) ;
#33 = DIRECTION ( 'NONE',  ( 0.0000000000000000000, 0.0000000000000000000, -1.000000000000000000 ) ) ;
#34 = EDGE_CURVE ( 'NONE', #125, #247, #96, .T. ) ;
#35 = AXIS2_PLACEMENT_3D ( 'NONE', #57, #253, #196 ) ;
#36 = DIRECTION ( 'NONE',  ( 0.0000000000000000000, 0.0000000000000000000, -1.000000000000000000 ) ) ;
#37 = AXIS2_PLACEMENT_3D ( 'NONE', #199, #177, #36 ) ;
#38 = CARTESIAN_POINT ( 'NONE',  ( 9.000000000000000000, 0.0000000000000000000, 0.0000000000000000000 ) ) ;
#39 = ORIENTED_EDGE ( 'NONE', *, *, #149, .T. ) ;
#40 = DIRECTION ( 'NONE',  ( 0.7071067811865443531, 0.0000000000000000000, -0.7071067811865506814 ) ) ;
#41 = DIRECTION ( 'NONE',  ( 0.0000000000000000000, 0.0000000000000000000, 1.000000000000000000 ) ) ;
#42 = ORIENTED_EDGE ( 'NONE', *, *, #47, .F. ) ;
#43 = CIRCLE ( 'NONE', #212, 4.899999999999997691 ) ;
#44 = CARTESIAN_POINT ( 'NONE',  ( 9.000000000000000000, 0.0000000000000000000, 4.900000000000004796 ) ) ;
#45 = CARTESIAN_POINT ( 'NONE',  ( 0.1000000000000011297, 0.0000000000000000000, 0.0000000000000000000 ) ) ;
#46 = VERTEX_POINT ( 'NONE', #225 ) ;
#47 = EDGE_CURVE ( 'NONE', #235, #265, #27, .T. ) ;
#48 = CYLINDRICAL_SURFACE ( 'NONE', #54, 2.600000000000000089 ) ;
#49 = ORIENTED_EDGE ( 'NONE', *, *, #208, .F. ) ;
#50 = CIRCLE ( 'NONE', #282, 3.100000000000001865 ) ;
#51 = ORIENTED_EDGE ( 'NONE', *, *, #239, .T. ) ;
#52 = DIRECTION ( 'NONE',  ( 0.0000000000000000000, 0.0000000000000000000, -1.000000000000000000 ) ) ;
#53 = CARTESIAN_POINT ( 'NONE',  ( 0.0000000000000000000, 0.0000000000000000000, 0.0000000000000000000 ) ) ;
#54 = AXIS2_PLACEMENT_3D ( 'NONE', #160, #209, #41 ) ;
#55 = AXIS2_PLACEMENT_3D ( 'NONE', #117, #181, #112 ) ;
#56 = ADVANCED_FACE ( 'NONE', ( #219 ), #364, .T. ) ;
#57 = CARTESIAN_POINT ( 'NONE',  ( 9.000000000000000000, 0.0000000000000000000, 0.0000000000000000000 ) ) ;
#58 = SURFACE_STYLE_USAGE ( .BOTH. , #135 ) ;
#59 = DIRECTION ( 'NONE',  ( 0.7071067811865463515, 8.659560562354948882E-17, 0.7071067811865487940 ) ) ;
#60 = ORIENTED_EDGE ( 'NONE', *, *, #239, .F. ) ;
#61 = CARTESIAN_POINT ( 'NONE',  ( 9.000000000000000000, 0.0000000000000000000, 0.0000000000000000000 ) ) ;
#62 = LINE ( 'NONE', #206, #195 ) ;
#63 = FACE_OUTER_BOUND ( 'NONE', #131, .T. ) ;
#64 = AXIS2_PLACEMENT_3D ( 'NONE', #139, #1, #52 ) ;
#65 = EDGE_CURVE ( 'NONE', #17, #122, #4, .T. ) ;
#66 = FACE_OUTER_BOUND ( 'NONE', #186, .T. ) ;
#67 = ORIENTED_EDGE ( 'NONE', *, *, #311, .F. ) ;
#68 = CARTESIAN_POINT ( 'NONE',  ( 0.1000000000000011297, 0.0000000000000000000, 0.0000000000000000000 ) ) ;
#69 = ORIENTED_EDGE ( 'NONE', *, *, #97, .F. ) ;
#70 = ORIENTED_EDGE ( 'NONE', *, *, #216, .T. ) ;
#71 = AXIS2_PLACEMENT_3D ( 'NONE', #53, #31, #337 ) ;
#72 = LINE ( 'NONE', #158, #18 ) ;
#73 = CARTESIAN_POINT ( 'NONE',  ( 9.000000000000000000, 6.062001655779401469E-16, -4.900000000000004796 ) ) ;
#74 = CARTESIAN_POINT ( 'NONE',  ( 0.0000000000000000000, 0.0000000000000000000, -4.899999999999997691 ) ) ;
#75 = ORIENTED_EDGE ( 'NONE', *, *, #34, .T. ) ;
#76 = LINE ( 'NONE', #214, #126 ) ;
#77 = ORIENTED_EDGE ( 'NONE', *, *, #276, .F. ) ;
#78 = PRODUCT_DEFINITION_FORMATION_WITH_SPECIFIED_SOURCE ( 'ANY', '', #15, .NOT_KNOWN. ) ;
#79 = AXIS2_PLACEMENT_3D ( 'NONE', #113, #229, #234 ) ;
#80 = EDGE_CURVE ( 'NONE', #315, #10, #205, .T. ) ;
#81 = CARTESIAN_POINT ( 'NONE',  ( 8.499999999999998224, 3.184081677783118191E-16, -2.600000000000000089 ) ) ;
#82 = CARTESIAN_POINT ( 'NONE',  ( 9.000000000000000000, 6.000769315822036656E-16, -4.900000000000004796 ) ) ;
#83 = DIRECTION ( 'NONE',  ( 0.0000000000000000000, 0.0000000000000000000, -1.000000000000000000 ) ) ;
#84 = SURFACE_STYLE_FILL_AREA ( #303 ) ;
#85 = AXIS2_PLACEMENT_3D ( 'NONE', #178, #287, #33 ) ;
#86 = SURFACE_STYLE_USAGE ( .BOTH. , #89 ) ;
#87 = CARTESIAN_POINT ( 'NONE',  ( 9.000000000000000000, 0.0000000000000000000, 0.0000000000000000000 ) ) ;
#88 = UNCERTAINTY_MEASURE_WITH_UNIT (LENGTH_MEASURE( 1.000000000000000082E-05 ), #172, 'distance_accuracy_value', 'NONE');
#89 = SURFACE_SIDE_STYLE ('',( #109 ) ) ;
#90 = CYLINDRICAL_SURFACE ( 'NONE', #92, 2.600000000000000089 ) ;
#91 = DIRECTION ( 'NONE',  ( -1.000000000000000000, -0.0000000000000000000, -0.0000000000000000000 ) ) ;
#92 = AXIS2_PLACEMENT_3D ( 'NONE', #305, #198, #310 ) ;
#93 = FACE_BOUND ( 'NONE', #268, .T. ) ;
#94 = ORIENTED_EDGE ( 'NONE', *, *, #255, .T. ) ;
#95 = DIRECTION ( 'NONE',  ( 0.0000000000000000000, 0.0000000000000000000, -1.000000000000000000 ) ) ;
#96 = CIRCLE ( 'NONE', #64, 3.100000000000001865 ) ;
#97 = EDGE_CURVE ( 'NONE', #10, #315, #175, .T. ) ;
#98 = EDGE_LOOP ( 'NONE', ( #210, #355, #159, #8 ) ) ;
#99 = STYLED_ITEM ( 'NONE', ( #283 ), #188 ) ;
#100 = ORIENTED_EDGE ( 'NONE', *, *, #65, .T. ) ;
#101 = CONICAL_SURFACE ( 'NONE', #313, 2.600000000000000089, 0.7853981633974500554 ) ;
#102 = EDGE_LOOP ( 'NONE', ( #190, #70 ) ) ;
#103 = CARTESIAN_POINT ( 'NONE',  ( 0.1000000000000011297, 6.123233995736766282E-16, -5.000000000000000000 ) ) ;
#104 = EDGE_LOOP ( 'NONE', ( #291, #349, #290, #347 ) ) ;
#105 = EDGE_LOOP ( 'NONE', ( #331, #22, #298, #274 ) ) ;
#106 = CIRCLE ( 'NONE', #294, 5.000000000000000000 ) ;
#107 =( LENGTH_UNIT ( ) NAMED_UNIT ( * ) SI_UNIT ( .MILLI., .METRE. ) );
#108 = AXIS2_PLACEMENT_3D ( 'NONE', #182, #286, #32 ) ;
#109 = SURFACE_STYLE_FILL_AREA ( #170 ) ;
#110 = DIRECTION ( 'NONE',  ( -0.7071067811865505703, 8.659560562354895880E-17, -0.7071067811865444641 ) ) ;
#111 = UNCERTAINTY_MEASURE_WITH_UNIT (LENGTH_MEASURE( 1.000000000000000082E-05 ), #223, 'distance_accuracy_value', 'NONE');
#112 = DIRECTION ( 'NONE',  ( 0.0000000000000000000, 0.0000000000000000000, -1.000000000000000000 ) ) ;
#113 = CARTESIAN_POINT ( 'NONE',  ( 0.0000000000000000000, 0.0000000000000000000, 0.0000000000000000000 ) ) ;
#114 = EDGE_LOOP ( 'NONE', ( #192, #49, #218, #322 ) ) ;
#115 = VECTOR ( 'NONE', #148, 1000.000000000000114 ) ;
#116 = DIRECTION ( 'NONE',  ( -1.000000000000000000, -0.0000000000000000000, -0.0000000000000000000 ) ) ;
#117 = CARTESIAN_POINT ( 'NONE',  ( 0.1000000000000011297, 0.0000000000000000000, 0.0000000000000000000 ) ) ;
#118 = MANIFOLD_SOLID_BREP ( 'Ôàñêà2', #200 ) ;
#119 = ADVANCED_FACE ( 'NONE', ( #362 ), #90, .F. ) ;
#120 = VERTEX_POINT ( 'NONE', #359 ) ;
#121 = FACE_OUTER_BOUND ( 'NONE', #98, .T. ) ;
#122 = VERTEX_POINT ( 'NONE', #142 ) ;
#123 = EDGE_CURVE ( 'NONE', #265, #235, #7, .T. ) ;
#124 = CARTESIAN_POINT ( 'NONE',  ( 9.000000000000000000, 0.0000000000000000000, -3.100000000000001865 ) ) ;
#125 = VERTEX_POINT ( 'NONE', #263 ) ;
#126 = VECTOR ( 'NONE', #272, 1000.000000000000000 ) ;
#127 = CARTESIAN_POINT ( 'NONE',  ( 0.0000000000000000000, 0.0000000000000000000, 0.0000000000000000000 ) ) ;
#128 = ORIENTED_EDGE ( 'NONE', *, *, #65, .F. ) ;
#129 = AXIS2_PLACEMENT_3D ( 'NONE', #6, #116, #241 ) ;
#130 = EDGE_CURVE ( 'NONE', #247, #125, #50, .T. ) ;
#131 = EDGE_LOOP ( 'NONE', ( #269, #100, #152, #203 ) ) ;
#132 = DIRECTION ( 'NONE',  ( -1.000000000000000000, -0.0000000000000000000, -0.0000000000000000000 ) ) ;
#133 = DIRECTION ( 'NONE',  ( 0.0000000000000000000, 0.0000000000000000000, -1.000000000000000000 ) ) ;
#134 = CARTESIAN_POINT ( 'NONE',  ( 8.900000000000003908, 0.0000000000000000000, 0.0000000000000000000 ) ) ;
#135 = SURFACE_SIDE_STYLE ('',( #84 ) ) ;
#136 = VECTOR ( 'NONE', #59, 1000.000000000000000 ) ;
#137 = EDGE_CURVE ( 'NONE', #277, #235, #316, .T. ) ;
#138 = DIRECTION ( 'NONE',  ( 1.000000000000000000, 0.0000000000000000000, 0.0000000000000000000 ) ) ;
#139 = CARTESIAN_POINT ( 'NONE',  ( 9.000000000000000000, 0.0000000000000000000, 0.0000000000000000000 ) ) ;
#140 = FACE_OUTER_BOUND ( 'NONE', #114, .T. ) ;
#141 = AXIS2_PLACEMENT_3D ( 'NONE', #134, #334, #361 ) ;
#142 = CARTESIAN_POINT ( 'NONE',  ( 8.900000000000003908, 6.123233995736766282E-16, -5.000000000000000000 ) ) ;
#143 = ADVANCED_FACE ( 'NONE', ( #63 ), #295, .T. ) ;
#144 = CARTESIAN_POINT ( 'NONE',  ( 8.499999999999998224, 0.0000000000000000000, 0.0000000000000000000 ) ) ;
#145 = FACE_OUTER_BOUND ( 'NONE', #105, .T. ) ;
#146 = PRESENTATION_LAYER_ASSIGNMENT (  '', '', ( #99 ) ) ;
#147 = AXIS2_PLACEMENT_3D ( 'NONE', #157, #14, #351 ) ;
#148 = DIRECTION ( 'NONE',  ( 0.7071067811865443531, 8.659560562354969836E-17, 0.7071067811865506814 ) ) ;
#149 = EDGE_CURVE ( 'NONE', #215, #125, #289, .T. ) ;
#150 = LINE ( 'NONE', #344, #340 ) ;
#151 = CARTESIAN_POINT ( 'NONE',  ( 8.499999999999998224, 3.184081677783118191E-16, 2.600000000000000089 ) ) ;
#152 = ORIENTED_EDGE ( 'NONE', *, *, #318, .F. ) ;
#153 = LINE ( 'NONE', #267, #332 ) ;
#154 = CIRCLE ( 'NONE', #147, 2.600000000000000089 ) ;
#155 = EDGE_LOOP ( 'NONE', ( #343, #165, #207, #69 ) ) ;
#156 = EDGE_CURVE ( 'NONE', #249, #265, #150, .T. ) ;
#157 = CARTESIAN_POINT ( 'NONE',  ( 8.499999999999998224, 0.0000000000000000000, 0.0000000000000000000 ) ) ;
#158 = CARTESIAN_POINT ( 'NONE',  ( 9.000000000000000000, 0.0000000000000000000, 2.600000000000000089 ) ) ;
#159 = ORIENTED_EDGE ( 'NONE', *, *, #137, .T. ) ;
#160 = CARTESIAN_POINT ( 'NONE',  ( 9.000000000000000000, 0.0000000000000000000, 0.0000000000000000000 ) ) ;
#161 = APPLICATION_PROTOCOL_DEFINITION ( 'draft international standard', 'automotive_design', 1998, #242 ) ;
#162 = EDGE_LOOP ( 'NONE', ( #67, #51, #293, #354 ) ) ;
#163 =( GEOMETRIC_REPRESENTATION_CONTEXT ( 3 ) GLOBAL_UNCERTAINTY_ASSIGNED_CONTEXT ( ( #309 ) ) GLOBAL_UNIT_ASSIGNED_CONTEXT ( ( #107, #29, #222 ) ) REPRESENTATION_CONTEXT ( 'NONE', 'WORKASPACE' ) );
#164 = SHAPE_DEFINITION_REPRESENTATION ( #237, #188 ) ;
#165 = ORIENTED_EDGE ( 'NONE', *, *, #208, .T. ) ;
#166 = DIRECTION ( 'NONE',  ( 0.0000000000000000000, 0.0000000000000000000, -1.000000000000000000 ) ) ;
#167 = COLOUR_RGB ( '',0.8666666666666666963, 0.8666666666666666963, 0.8901960784313724950 ) ;
#168 = ADVANCED_FACE ( 'NONE', ( #204 ), #352, .F. ) ;
#169 = CONICAL_SURFACE ( 'NONE', #108, 4.900000000000004796, 0.7853981633974439491 ) ;
#170 = FILL_AREA_STYLE ('',( #338 ) ) ;
#171 = CARTESIAN_POINT ( 'NONE',  ( 8.499999999999998224, 0.0000000000000000000, 0.0000000000000000000 ) ) ;
#172 =( LENGTH_UNIT ( ) NAMED_UNIT ( * ) SI_UNIT ( .MILLI., .METRE. ) );
#173 = DIRECTION ( 'NONE',  ( 0.0000000000000000000, 0.0000000000000000000, 1.000000000000000000 ) ) ;
#174 = PRODUCT_DEFINITION_CONTEXT ( 'detailed design', #278, 'design' ) ;
#175 = CIRCLE ( 'NONE', #306, 2.600000000000000089 ) ;
#176 = VECTOR ( 'NONE', #40, 1000.000000000000114 ) ;
#177 = DIRECTION ( 'NONE',  ( 1.000000000000000000, 0.0000000000000000000, 0.0000000000000000000 ) ) ;
#178 = CARTESIAN_POINT ( 'NONE',  ( 9.000000000000000000, 0.0000000000000000000, 0.0000000000000000000 ) ) ;
#179 = DIRECTION ( 'NONE',  ( 1.000000000000000000, 0.0000000000000000000, 0.0000000000000000000 ) ) ;
#180 = CONICAL_SURFACE ( 'NONE', #357, 5.000000000000000000, 0.7853981633974528309 ) ;
#181 = DIRECTION ( 'NONE',  ( 1.000000000000000000, -0.0000000000000000000, -0.0000000000000000000 ) ) ;
#182 = CARTESIAN_POINT ( 'NONE',  ( 9.000000000000000000, 0.0000000000000000000, 0.0000000000000000000 ) ) ;
#183 = ORIENTED_EDGE ( 'NONE', *, *, #323, .T. ) ;
#184 = EDGE_LOOP ( 'NONE', ( #321, #231 ) ) ;
#185 = CIRCLE ( 'NONE', #26, 4.900000000000004796 ) ;
#186 = EDGE_LOOP ( 'NONE', ( #128, #301, #94, #60 ) ) ;
#187 = DIRECTION ( 'NONE',  ( -1.000000000000000000, -0.0000000000000000000, -0.0000000000000000000 ) ) ;
#188 = ADVANCED_BREP_SHAPE_REPRESENTATION ( 'A203 -ø¸ªðý¡øþýýð  òªºûúð 5¿9 üü', ( #118, #30 ), #346 ) ;
#189 = DIRECTION ( 'NONE',  ( 1.000000000000000000, 0.0000000000000000000, 0.0000000000000000000 ) ) ;
#190 = ORIENTED_EDGE ( 'NONE', *, *, #3, .T. ) ;
#191 = EDGE_CURVE ( 'NONE', #46, #265, #345, .T. ) ;
#192 = ORIENTED_EDGE ( 'NONE', *, *, #149, .F. ) ;
#193 = DIRECTION ( 'NONE',  ( 1.000000000000000000, 0.0000000000000000000, 0.0000000000000000000 ) ) ;
#194 = DIRECTION ( 'NONE',  ( 0.0000000000000000000, 0.0000000000000000000, -1.000000000000000000 ) ) ;
#195 = VECTOR ( 'NONE', #320, 1000.000000000000000 ) ;
#196 = DIRECTION ( 'NONE',  ( 0.0000000000000000000, 0.0000000000000000000, -1.000000000000000000 ) ) ;
#197 = EDGE_CURVE ( 'NONE', #328, #10, #62, .T. ) ;
#198 = DIRECTION ( 'NONE',  ( -1.000000000000000000, -0.0000000000000000000, -0.0000000000000000000 ) ) ;
#199 = CARTESIAN_POINT ( 'NONE',  ( 8.499999999999998224, 0.0000000000000000000, 0.0000000000000000000 ) ) ;
#200 = CLOSED_SHELL ( 'NONE', ( #143, #9, #168, #284, #228, #221, #360, #56, #119, #20, #233, #202 ) ) ;
#201 = DIRECTION ( 'NONE',  ( -1.000000000000000000, 0.0000000000000000000, 0.0000000000000000000 ) ) ;
#202 = ADVANCED_FACE ( 'NONE', ( #66 ), #169, .T. ) ;
#203 = ORIENTED_EDGE ( 'NONE', *, *, #255, .F. ) ;
#204 = FACE_OUTER_BOUND ( 'NONE', #245, .T. ) ;
#205 = CIRCLE ( 'NONE', #71, 2.600000000000000089 ) ;
#206 = CARTESIAN_POINT ( 'NONE',  ( 9.000000000000000000, 3.184081677783118191E-16, -2.600000000000000089 ) ) ;
#207 = ORIENTED_EDGE ( 'NONE', *, *, #270, .T. ) ;
#208 = EDGE_CURVE ( 'NONE', #328, #215, #220, .T. ) ;
#209 = DIRECTION ( 'NONE',  ( -1.000000000000000000, -0.0000000000000000000, -0.0000000000000000000 ) ) ;
#210 = ORIENTED_EDGE ( 'NONE', *, *, #191, .F. ) ;
#211 = ORIENTED_EDGE ( 'NONE', *, *, #216, .F. ) ;
#212 = AXIS2_PLACEMENT_3D ( 'NONE', #13, #296, #133 ) ;
#213 = DIRECTION ( 'NONE',  ( 0.0000000000000000000, 0.0000000000000000000, -1.000000000000000000 ) ) ;
#214 = CARTESIAN_POINT ( 'NONE',  ( 8.499999999999998224, 0.0000000000000000000, -2.600000000000000089 ) ) ;
#215 = VERTEX_POINT ( 'NONE', #5 ) ;
#216 = EDGE_CURVE ( 'NONE', #46, #277, #246, .T. ) ;
#217 = DIRECTION ( 'NONE',  ( 0.0000000000000000000, 0.0000000000000000000, -1.000000000000000000 ) ) ;
#218 = ORIENTED_EDGE ( 'NONE', *, *, #276, .T. ) ;
#219 = FACE_OUTER_BOUND ( 'NONE', #162, .T. ) ;
#220 = CIRCLE ( 'NONE', #240, 2.600000000000000089 ) ;
#221 = ADVANCED_FACE ( 'NONE', ( #339, #93 ), #314, .T. ) ;
#222 =( NAMED_UNIT ( * ) SI_UNIT ( $, .STERADIAN. ) SOLID_ANGLE_UNIT ( ) );
#223 =( LENGTH_UNIT ( ) NAMED_UNIT ( * ) SI_UNIT ( .MILLI., .METRE. ) );
#224 = MECHANICAL_DESIGN_GEOMETRIC_PRESENTATION_REPRESENTATION (  '', ( #99 ), #256 ) ;
#225 = CARTESIAN_POINT ( 'NONE',  ( 0.0000000000000000000, 6.062001655779397525E-16, 4.899999999999997691 ) ) ;
#226 = COLOUR_RGB ( '',0.8666666666666666963, 0.8666666666666666963, 0.8901960784313724950 ) ;
#227 = CARTESIAN_POINT ( 'NONE',  ( 9.000000000000000000, 0.0000000000000000000, 0.0000000000000000000 ) ) ;
#228 = ADVANCED_FACE ( 'NONE', ( #145 ), #260, .T. ) ;
#229 = DIRECTION ( 'NONE',  ( -1.000000000000000000, -0.0000000000000000000, -0.0000000000000000000 ) ) ;
#230 = CIRCLE ( 'NONE', #141, 5.000000000000000000 ) ;
#231 = ORIENTED_EDGE ( 'NONE', *, *, #97, .T. ) ;
#232 = VECTOR ( 'NONE', #110, 1000.000000000000227 ) ;
#233 = ADVANCED_FACE ( 'NONE', ( #121 ), #180, .T. ) ;
#234 = DIRECTION ( 'NONE',  ( 0.0000000000000000000, 0.0000000000000000000, -1.000000000000000000 ) ) ;
#235 = VERTEX_POINT ( 'NONE', #103 ) ;
#236 = DIRECTION ( 'NONE',  ( 0.0000000000000000000, 0.0000000000000000000, 1.000000000000000000 ) ) ;
#237 = PRODUCT_DEFINITION_SHAPE ( 'NONE', 'NONE',  #252 ) ;
#238 = DIRECTION ( 'NONE',  ( -1.000000000000000000, -0.0000000000000000000, -0.0000000000000000000 ) ) ;
#239 = EDGE_CURVE ( 'NONE', #122, #249, #106, .T. ) ;
#240 = AXIS2_PLACEMENT_3D ( 'NONE', #144, #179, #259 ) ;
#241 = DIRECTION ( 'NONE',  ( 0.0000000000000000000, 0.0000000000000000000, 1.000000000000000000 ) ) ;
#242 = APPLICATION_CONTEXT ( 'automotive_design' ) ;
#243 = DIRECTION ( 'NONE',  ( 1.000000000000000000, -0.0000000000000000000, -0.0000000000000000000 ) ) ;
#244 = CARTESIAN_POINT ( 'NONE',  ( 0.0000000000000000000, 3.184081677783118191E-16, -2.600000000000000089 ) ) ;
#245 = EDGE_LOOP ( 'NONE', ( #325, #39, #271, #77 ) ) ;
#246 = CIRCLE ( 'NONE', #79, 4.899999999999997691 ) ;
#247 = VERTEX_POINT ( 'NONE', #124 ) ;
#248 = DIRECTION ( 'NONE',  ( -0.7071067811865505703, 0.0000000000000000000, 0.7071067811865444641 ) ) ;
#249 = VERTEX_POINT ( 'NONE', #292 ) ;
#250 =( NAMED_UNIT ( * ) PLANE_ANGLE_UNIT ( ) SI_UNIT ( $, .RADIAN. ) );
#251 = FACE_OUTER_BOUND ( 'NONE', #341, .T. ) ;
#252 = PRODUCT_DEFINITION ( 'UNKNOWN', '', #78, #174 ) ;
#253 = DIRECTION ( 'NONE',  ( 1.000000000000000000, 0.0000000000000000000, 0.0000000000000000000 ) ) ;
#254 = DIRECTION ( 'NONE',  ( 1.000000000000000000, -0.0000000000000000000, -0.0000000000000000000 ) ) ;
#255 = EDGE_CURVE ( 'NONE', #120, #249, #297, .T. ) ;
#256 =( GEOMETRIC_REPRESENTATION_CONTEXT ( 3 ) GLOBAL_UNCERTAINTY_ASSIGNED_CONTEXT ( ( #111 ) ) GLOBAL_UNIT_ASSIGNED_CONTEXT ( ( #223, #288, #16 ) ) REPRESENTATION_CONTEXT ( 'NONE', 'WORKASPACE' ) );
#257 = DIRECTION ( 'NONE',  ( 1.000000000000000000, 0.0000000000000000000, 0.0000000000000000000 ) ) ;
#258 = PRESENTATION_STYLE_ASSIGNMENT (( #58 ) ) ;
#259 = DIRECTION ( 'NONE',  ( 0.0000000000000000000, 0.0000000000000000000, -1.000000000000000000 ) ) ;
#260 = CYLINDRICAL_SURFACE ( 'NONE', #129, 5.000000000000000000 ) ;
#261 = AXIS2_PLACEMENT_3D ( 'NONE', #358, #285, #194 ) ;
#262 = ORIENTED_EDGE ( 'NONE', *, *, #191, .T. ) ;
#263 = CARTESIAN_POINT ( 'NONE',  ( 9.000000000000000000, 3.796405077356797876E-16, 3.100000000000001865 ) ) ;
#264 = ORIENTED_EDGE ( 'NONE', *, *, #130, .T. ) ;
#265 = VERTEX_POINT ( 'NONE', #353 ) ;
#266 = MECHANICAL_DESIGN_GEOMETRIC_PRESENTATION_REPRESENTATION (  '', ( #2 ), #163 ) ;
#267 = CARTESIAN_POINT ( 'NONE',  ( 9.000000000000000000, 6.123233995736766282E-16, -5.000000000000000000 ) ) ;
#268 = EDGE_LOOP ( 'NONE', ( #264, #75 ) ) ;
#269 = ORIENTED_EDGE ( 'NONE', *, *, #336, .F. ) ;
#270 = EDGE_CURVE ( 'NONE', #215, #315, #72, .T. ) ;
#271 = ORIENTED_EDGE ( 'NONE', *, *, #130, .F. ) ;
#272 = DIRECTION ( 'NONE',  ( 0.7071067811865463515, 0.0000000000000000000, -0.7071067811865487940 ) ) ;
#273 = AXIS2_PLACEMENT_3D ( 'NONE', #61, #201, #236 ) ;
#274 = ORIENTED_EDGE ( 'NONE', *, *, #156, .F. ) ;
#275 = PLANE ( 'NONE',  #261 ) ;
#276 = EDGE_CURVE ( 'NONE', #328, #247, #76, .T. ) ;
#277 = VERTEX_POINT ( 'NONE', #74 ) ;
#278 = APPLICATION_CONTEXT ( 'automotive_design' ) ;
#279 = DIRECTION ( 'NONE',  ( 0.0000000000000000000, 0.0000000000000000000, -1.000000000000000000 ) ) ;
#280 = CIRCLE ( 'NONE', #35, 4.900000000000004796 ) ;
#281 = DIRECTION ( 'NONE',  ( 0.0000000000000000000, 0.0000000000000000000, -1.000000000000000000 ) ) ;
#282 = AXIS2_PLACEMENT_3D ( 'NONE', #38, #238, #95 ) ;
#283 = PRESENTATION_STYLE_ASSIGNMENT (( #86 ) ) ;
#284 = ADVANCED_FACE ( 'NONE', ( #11 ), #48, .F. ) ;
#285 = DIRECTION ( 'NONE',  ( 1.000000000000000000, 0.0000000000000000000, 0.0000000000000000000 ) ) ;
#286 = DIRECTION ( 'NONE',  ( -1.000000000000000000, 0.0000000000000000000, 0.0000000000000000000 ) ) ;
#287 = DIRECTION ( 'NONE',  ( 1.000000000000000000, 0.0000000000000000000, 0.0000000000000000000 ) ) ;
#288 =( NAMED_UNIT ( * ) PLANE_ANGLE_UNIT ( ) SI_UNIT ( $, .RADIAN. ) );
#289 = LINE ( 'NONE', #151, #136 ) ;
#290 = ORIENTED_EDGE ( 'NONE', *, *, #80, .F. ) ;
#291 = ORIENTED_EDGE ( 'NONE', *, *, #12, .T. ) ;
#292 = CARTESIAN_POINT ( 'NONE',  ( 8.900000000000003908, 0.0000000000000000000, 5.000000000000000000 ) ) ;
#293 = ORIENTED_EDGE ( 'NONE', *, *, #156, .T. ) ;
#294 = AXIS2_PLACEMENT_3D ( 'NONE', #350, #327, #324 ) ;
#295 = CONICAL_SURFACE ( 'NONE', #273, 4.900000000000004796, 0.7853981633974439491 ) ;
#296 = DIRECTION ( 'NONE',  ( -1.000000000000000000, -0.0000000000000000000, -0.0000000000000000000 ) ) ;
#297 = LINE ( 'NONE', #44, #312 ) ;
#298 = ORIENTED_EDGE ( 'NONE', *, *, #47, .T. ) ;
#299 = ORIENTED_EDGE ( 'NONE', *, *, #137, .F. ) ;
#300 = AXIS2_PLACEMENT_3D ( 'NONE', #45, #356, #213 ) ;
#301 = ORIENTED_EDGE ( 'NONE', *, *, #323, .F. ) ;
#302 = FACE_OUTER_BOUND ( 'NONE', #102, .T. ) ;
#303 = FILL_AREA_STYLE ('',( #25 ) ) ;
#304 = CARTESIAN_POINT ( 'NONE',  ( 0.1000000000000011297, 0.0000000000000000000, 0.0000000000000000000 ) ) ;
#305 = CARTESIAN_POINT ( 'NONE',  ( 9.000000000000000000, 0.0000000000000000000, 0.0000000000000000000 ) ) ;
#306 = AXIS2_PLACEMENT_3D ( 'NONE', #28, #193, #166 ) ;
#307 = PRODUCT_RELATED_PRODUCT_CATEGORY ( 'part', '', ( #15 ) ) ;
#308 = FACE_BOUND ( 'NONE', #184, .T. ) ;
#309 = UNCERTAINTY_MEASURE_WITH_UNIT (LENGTH_MEASURE( 1.000000000000000082E-05 ), #107, 'distance_accuracy_value', 'NONE');
#310 = DIRECTION ( 'NONE',  ( 0.0000000000000000000, 0.0000000000000000000, 1.000000000000000000 ) ) ;
#311 = EDGE_CURVE ( 'NONE', #122, #235, #153, .T. ) ;
#312 = VECTOR ( 'NONE', #248, 1000.000000000000227 ) ;
#313 = AXIS2_PLACEMENT_3D ( 'NONE', #171, #257, #281 ) ;
#314 = PLANE ( 'NONE',  #85 ) ;
#315 = VERTEX_POINT ( 'NONE', #24 ) ;
#316 = LINE ( 'NONE', #342, #176 ) ;
#317 = CARTESIAN_POINT ( 'NONE',  ( 0.1000000000000011297, 6.123233995736766282E-16, 5.000000000000000000 ) ) ;
#318 = EDGE_CURVE ( 'NONE', #249, #122, #230, .T. ) ;
#319 = AXIS2_PLACEMENT_3D ( 'NONE', #304, #254, #279 ) ;
#320 = DIRECTION ( 'NONE',  ( -1.000000000000000000, -0.0000000000000000000, -0.0000000000000000000 ) ) ;
#321 = ORIENTED_EDGE ( 'NONE', *, *, #80, .T. ) ;
#322 = ORIENTED_EDGE ( 'NONE', *, *, #34, .F. ) ;
#323 = EDGE_CURVE ( 'NONE', #120, #17, #185, .T. ) ;
#324 = DIRECTION ( 'NONE',  ( 0.0000000000000000000, 0.0000000000000000000, -1.000000000000000000 ) ) ;
#325 = ORIENTED_EDGE ( 'NONE', *, *, #12, .F. ) ;
#326 = PRESENTATION_LAYER_ASSIGNMENT (  '', '', ( #2 ) ) ;
#327 = DIRECTION ( 'NONE',  ( -1.000000000000000000, 0.0000000000000000000, 0.0000000000000000000 ) ) ;
#328 = VERTEX_POINT ( 'NONE', #81 ) ;
#329 = PRODUCT_CONTEXT ( 'NONE', #242, 'mechanical' ) ;
#330 = ORIENTED_EDGE ( 'NONE', *, *, #336, .T. ) ;
#331 = ORIENTED_EDGE ( 'NONE', *, *, #318, .T. ) ;
#332 = VECTOR ( 'NONE', #132, 1000.000000000000000 ) ;
#333 = AXIS2_PLACEMENT_3D ( 'NONE', #87, #335, #173 ) ;
#334 = DIRECTION ( 'NONE',  ( -1.000000000000000000, 0.0000000000000000000, 0.0000000000000000000 ) ) ;
#335 = DIRECTION ( 'NONE',  ( -1.000000000000000000, -0.0000000000000000000, -0.0000000000000000000 ) ) ;
#336 = EDGE_CURVE ( 'NONE', #17, #120, #280, .T. ) ;
#337 = DIRECTION ( 'NONE',  ( 0.0000000000000000000, 0.0000000000000000000, -1.000000000000000000 ) ) ;
#338 = FILL_AREA_STYLE_COLOUR ( '', #167 ) ;
#339 = FACE_OUTER_BOUND ( 'NONE', #23, .T. ) ;
#340 = VECTOR ( 'NONE', #91, 1000.000000000000000 ) ;
#341 = EDGE_LOOP ( 'NONE', ( #211, #262, #42, #299 ) ) ;
#342 = CARTESIAN_POINT ( 'NONE',  ( 0.1000000000000011297, 0.0000000000000000000, -5.000000000000000000 ) ) ;
#343 = ORIENTED_EDGE ( 'NONE', *, *, #197, .F. ) ;
#344 = CARTESIAN_POINT ( 'NONE',  ( 9.000000000000000000, 0.0000000000000000000, 5.000000000000000000 ) ) ;
#345 = LINE ( 'NONE', #317, #115 ) ;
#346 =( GEOMETRIC_REPRESENTATION_CONTEXT ( 3 ) GLOBAL_UNCERTAINTY_ASSIGNED_CONTEXT ( ( #88 ) ) GLOBAL_UNIT_ASSIGNED_CONTEXT ( ( #172, #250, #363 ) ) REPRESENTATION_CONTEXT ( 'NONE', 'WORKASPACE' ) );
#347 = ORIENTED_EDGE ( 'NONE', *, *, #270, .F. ) ;
#348 = DIRECTION ( 'NONE',  ( 0.0000000000000000000, 0.0000000000000000000, 1.000000000000000000 ) ) ;
#349 = ORIENTED_EDGE ( 'NONE', *, *, #197, .T. ) ;
#350 = CARTESIAN_POINT ( 'NONE',  ( 8.900000000000003908, 0.0000000000000000000, 0.0000000000000000000 ) ) ;
#351 = DIRECTION ( 'NONE',  ( 0.0000000000000000000, 0.0000000000000000000, -1.000000000000000000 ) ) ;
#352 = CONICAL_SURFACE ( 'NONE', #37, 2.600000000000000089, 0.7853981633974500554 ) ;
#353 = CARTESIAN_POINT ( 'NONE',  ( 0.1000000000000011297, 0.0000000000000000000, 5.000000000000000000 ) ) ;
#354 = ORIENTED_EDGE ( 'NONE', *, *, #123, .T. ) ;
#355 = ORIENTED_EDGE ( 'NONE', *, *, #3, .F. ) ;
#356 = DIRECTION ( 'NONE',  ( 1.000000000000000000, -0.0000000000000000000, -0.0000000000000000000 ) ) ;
#357 = AXIS2_PLACEMENT_3D ( 'NONE', #68, #243, #217 ) ;
#358 = CARTESIAN_POINT ( 'NONE',  ( 0.0000000000000000000, 0.0000000000000000000, 0.0000000000000000000 ) ) ;
#359 = CARTESIAN_POINT ( 'NONE',  ( 9.000000000000000000, 0.0000000000000000000, 4.900000000000004796 ) ) ;
#360 = ADVANCED_FACE ( 'NONE', ( #302, #308 ), #275, .F. ) ;
#361 = DIRECTION ( 'NONE',  ( 0.0000000000000000000, 0.0000000000000000000, -1.000000000000000000 ) ) ;
#362 = FACE_OUTER_BOUND ( 'NONE', #155, .T. ) ;
#363 =( NAMED_UNIT ( * ) SI_UNIT ( $, .STERADIAN. ) SOLID_ANGLE_UNIT ( ) );
#364 = CYLINDRICAL_SURFACE ( 'NONE', #333, 5.000000000000000000 ) ;
ENDSEC;
END-ISO-10303-21;
