ISO-10303-21;
HEADER;
FILE_DESCRIPTION (( 'STEP AP214' ),
    '1' );
FILE_NAME ('A204 Äèñòàíöèîííàÿ âòóëêà 5õ13,2 ìì.STEP',
    '2020-10-06T12:57:43',
    ( 'Windows User' ),
    ( '' ),
    'SwSTEP 2.0',
    'SolidWorks 2020',
    '' );
FILE_SCHEMA (( 'AUTOMOTIVE_DESIGN' ));
ENDSEC;

DATA;
#1 = ORIENTED_EDGE ( 'NONE', *, *, #180, .F. ) ;
#2 = ORIENTED_EDGE ( 'NONE', *, *, #189, .F. ) ;
#3 = VECTOR ( 'NONE', #19, 999.9999999999998863 ) ;
#4 = VERTEX_POINT ( 'NONE', #156 ) ;
#5 = EDGE_LOOP ( 'NONE', ( #259, #23 ) ) ;
#6 = APPLICATION_CONTEXT ( 'automotive_design' ) ;
#7 = EDGE_LOOP ( 'NONE', ( #172, #134, #206, #89 ) ) ;
#8 = UNCERTAINTY_MEASURE_WITH_UNIT (LENGTH_MEASURE( 1.000000000000000082E-05 ), #17, 'distance_accuracy_value', 'NONE');
#9 = FACE_OUTER_BOUND ( 'NONE', #213, .T. ) ;
#10 = CONICAL_SURFACE ( 'NONE', #299, 2.625000000000000000, 0.7853981633974492782 ) ;
#11 = DIRECTION ( 'NONE',  ( 1.000000000000000000, 0.0000000000000000000, 0.0000000000000000000 ) ) ;
#12 = DIRECTION ( 'NONE',  ( 1.000000000000000000, 0.0000000000000000000, 0.0000000000000000000 ) ) ;
#13 = CARTESIAN_POINT ( 'NONE',  ( 6.400000000000001243, 3.214697847761802076E-16, 2.625000000000000000 ) ) ;
#14 = DIRECTION ( 'NONE',  ( 0.0000000000000000000, 0.0000000000000000000, -1.000000000000000000 ) ) ;
#15 = DIRECTION ( 'NONE',  ( -1.000000000000000000, 0.0000000000000000000, 0.0000000000000000000 ) ) ;
#16 = EDGE_CURVE ( 'NONE', #287, #308, #268, .T. ) ;
#17 =( LENGTH_UNIT ( ) NAMED_UNIT ( * ) SI_UNIT ( .MILLI., .METRE. ) );
#18 = FACE_OUTER_BOUND ( 'NONE', #177, .T. ) ;
#19 = DIRECTION ( 'NONE',  ( 0.7071067811865467956, 0.0000000000000000000, -0.7071067811865483499 ) ) ;
#20 = FILL_AREA_STYLE ('',( #80 ) ) ;
#21 = CIRCLE ( 'NONE', #118, 4.999999999999999112 ) ;
#22 = DIRECTION ( 'NONE',  ( 1.000000000000000000, 0.0000000000000000000, 0.0000000000000000000 ) ) ;
#23 = ORIENTED_EDGE ( 'NONE', *, *, #231, .T. ) ;
#24 = CARTESIAN_POINT ( 'NONE',  ( -6.499999999999999112, 0.0000000000000000000, 0.0000000000000000000 ) ) ;
#25 = AXIS2_PLACEMENT_3D ( 'NONE', #272, #361, #362 ) ;
#26 = AXIS2_PLACEMENT_3D ( 'NONE', #316, #243, #135 ) ;
#27 = EDGE_LOOP ( 'NONE', ( #116, #310, #151, #175 ) ) ;
#28 = ORIENTED_EDGE ( 'NONE', *, *, #252, .T. ) ;
#29 = ORIENTED_EDGE ( 'NONE', *, *, #48, .F. ) ;
#30 = AXIS2_PLACEMENT_3D ( 'NONE', #93, #95, #183 ) ;
#31 = LINE ( 'NONE', #315, #82 ) ;
#32 = EDGE_CURVE ( 'NONE', #256, #234, #31, .T. ) ;
#33 = CARTESIAN_POINT ( 'NONE',  ( 6.599999999999999645, 0.0000000000000000000, 2.625000000000000000 ) ) ;
#34 = FILL_AREA_STYLE ('',( #241 ) ) ;
#35 = CARTESIAN_POINT ( 'NONE',  ( 6.400000000000001243, 0.0000000000000000000, 2.625000000000000000 ) ) ;
#36 = VECTOR ( 'NONE', #142, 1000.000000000000000 ) ;
#37 = CONICAL_SURFACE ( 'NONE', #150, 4.899999999999997691, 0.7853981633974352894 ) ;
#38 = ADVANCED_BREP_SHAPE_REPRESENTATION ( 'A204 -ø¸ªðý¡øþýýð  òªºûúð 5¿13,2 üü', ( #203, #314 ), #331 ) ;
#39 = DIRECTION ( 'NONE',  ( 1.000000000000000000, 0.0000000000000000000, 0.0000000000000000000 ) ) ;
#40 = ORIENTED_EDGE ( 'NONE', *, *, #282, .T. ) ;
#41 = DIRECTION ( 'NONE',  ( -1.000000000000000000, -0.0000000000000000000, -0.0000000000000000000 ) ) ;
#42 = ORIENTED_EDGE ( 'NONE', *, *, #235, .F. ) ;
#43 = ORIENTED_EDGE ( 'NONE', *, *, #121, .F. ) ;
#44 = AXIS2_PLACEMENT_3D ( 'NONE', #47, #227, #306 ) ;
#45 = AXIS2_PLACEMENT_3D ( 'NONE', #201, #279, #248 ) ;
#46 = CYLINDRICAL_SURFACE ( 'NONE', #51, 2.625000000000000000 ) ;
#47 = CARTESIAN_POINT ( 'NONE',  ( 6.599999999999999645, 0.0000000000000000000, 0.0000000000000000000 ) ) ;
#48 = EDGE_CURVE ( 'NONE', #60, #4, #113, .T. ) ;
#49 = APPLICATION_PROTOCOL_DEFINITION ( 'draft international standard', 'automotive_design', 1998, #330 ) ;
#50 = CARTESIAN_POINT ( 'NONE',  ( 6.599999999999999645, 0.0000000000000000000, 4.999999999999999112 ) ) ;
#51 = AXIS2_PLACEMENT_3D ( 'NONE', #127, #222, #158 ) ;
#52 = SURFACE_SIDE_STYLE ('',( #138 ) ) ;
#53 = ADVANCED_FACE ( 'NONE', ( #238 ), #286, .T. ) ;
#54 = ORIENTED_EDGE ( 'NONE', *, *, #282, .F. ) ;
#55 = DIRECTION ( 'NONE',  ( 0.0000000000000000000, 0.0000000000000000000, -1.000000000000000000 ) ) ;
#56 = ORIENTED_EDGE ( 'NONE', *, *, #224, .T. ) ;
#57 = ORIENTED_EDGE ( 'NONE', *, *, #312, .T. ) ;
#58 = EDGE_CURVE ( 'NONE', #200, #308, #86, .T. ) ;
#59 = VERTEX_POINT ( 'NONE', #153 ) ;
#60 = VERTEX_POINT ( 'NONE', #179 ) ;
#61 = ADVANCED_FACE ( 'NONE', ( #123 ), #210, .T. ) ;
#62 = ORIENTED_EDGE ( 'NONE', *, *, #180, .T. ) ;
#63 = VECTOR ( 'NONE', #242, 1000.000000000000000 ) ;
#64 = ORIENTED_EDGE ( 'NONE', *, *, #220, .F. ) ;
#65 = FACE_OUTER_BOUND ( 'NONE', #247, .T. ) ;
#66 = CARTESIAN_POINT ( 'NONE',  ( 6.599999999999999645, 6.062001655779396539E-16, -4.899999999999997691 ) ) ;
#67 = SURFACE_STYLE_USAGE ( .BOTH. , #155 ) ;
#68 = CARTESIAN_POINT ( 'NONE',  ( -6.599999999999999645, 6.062001655779397525E-16, 4.899999999999999467 ) ) ;
#69 = DIRECTION ( 'NONE',  ( 1.000000000000000000, 0.0000000000000000000, 0.0000000000000000000 ) ) ;
#70 = DIRECTION ( 'NONE',  ( 0.0000000000000000000, 0.0000000000000000000, -1.000000000000000000 ) ) ;
#71 = DIRECTION ( 'NONE',  ( -1.000000000000000000, -0.0000000000000000000, -0.0000000000000000000 ) ) ;
#72 = CARTESIAN_POINT ( 'NONE',  ( -6.599999999999999645, 0.0000000000000000000, 2.625000000000000000 ) ) ;
#73 = EDGE_CURVE ( 'NONE', #60, #234, #260, .T. ) ;
#74 = COLOUR_RGB ( '',0.8980392156862745390, 0.9176470588235293713, 0.9294117647058823817 ) ;
#75 = DIRECTION ( 'NONE',  ( 0.0000000000000000000, 0.0000000000000000000, -1.000000000000000000 ) ) ;
#76 = CARTESIAN_POINT ( 'NONE',  ( 6.599999999999999645, 0.0000000000000000000, 4.899999999999997691 ) ) ;
#77 = VERTEX_POINT ( 'NONE', #68 ) ;
#78 = LINE ( 'NONE', #110, #280 ) ;
#79 =( LENGTH_UNIT ( ) NAMED_UNIT ( * ) SI_UNIT ( .MILLI., .METRE. ) );
#80 = FILL_AREA_STYLE_COLOUR ( '', #74 ) ;
#81 = EDGE_CURVE ( 'NONE', #96, #200, #122, .T. ) ;
#82 = VECTOR ( 'NONE', #217, 1000.000000000000000 ) ;
#83 = FACE_OUTER_BOUND ( 'NONE', #27, .T. ) ;
#84 = VERTEX_POINT ( 'NONE', #66 ) ;
#85 = EDGE_CURVE ( 'NONE', #4, #60, #270, .T. ) ;
#86 = CIRCLE ( 'NONE', #192, 2.625000000000000000 ) ;
#87 = EDGE_LOOP ( 'NONE', ( #283, #230, #28, #29 ) ) ;
#88 = ORIENTED_EDGE ( 'NONE', *, *, #220, .T. ) ;
#89 = ORIENTED_EDGE ( 'NONE', *, *, #235, .T. ) ;
#90 = STYLED_ITEM ( 'NONE', ( #277 ), #38 ) ;
#91 = CARTESIAN_POINT ( 'NONE',  ( 6.499999999999996447, 0.0000000000000000000, 0.0000000000000000000 ) ) ;
#92 = CIRCLE ( 'NONE', #300, 2.824999999999999289 ) ;
#93 = CARTESIAN_POINT ( 'NONE',  ( -6.599999999999999645, 0.0000000000000000000, 0.0000000000000000000 ) ) ;
#94 = DIRECTION ( 'NONE',  ( 0.0000000000000000000, 0.0000000000000000000, -1.000000000000000000 ) ) ;
#95 = DIRECTION ( 'NONE',  ( 1.000000000000000000, 0.0000000000000000000, 0.0000000000000000000 ) ) ;
#96 = VERTEX_POINT ( 'NONE', #35 ) ;
#97 = EDGE_CURVE ( 'NONE', #84, #363, #258, .T. ) ;
#98 = DIRECTION ( 'NONE',  ( 0.0000000000000000000, 0.0000000000000000000, -1.000000000000000000 ) ) ;
#99 = DIRECTION ( 'NONE',  ( 1.000000000000000000, 0.0000000000000000000, 0.0000000000000000000 ) ) ;
#100 = AXIS2_PLACEMENT_3D ( 'NONE', #191, #214, #296 ) ;
#101 = CARTESIAN_POINT ( 'NONE',  ( 6.400000000000001243, 0.0000000000000000000, 0.0000000000000000000 ) ) ;
#102 = FACE_OUTER_BOUND ( 'NONE', #7, .T. ) ;
#103 = DIRECTION ( 'NONE',  ( -0.7071067811865567876, 0.0000000000000000000, 0.7071067811865383579 ) ) ;
#104 = ORIENTED_EDGE ( 'NONE', *, *, #81, .T. ) ;
#105 = DIRECTION ( 'NONE',  ( -1.000000000000000000, -0.0000000000000000000, -0.0000000000000000000 ) ) ;
#106 = AXIS2_PLACEMENT_3D ( 'NONE', #169, #105, #75 ) ;
#107 = CYLINDRICAL_SURFACE ( 'NONE', #44, 4.999999999999999112 ) ;
#108 =( GEOMETRIC_REPRESENTATION_CONTEXT ( 3 ) GLOBAL_UNCERTAINTY_ASSIGNED_CONTEXT ( ( #8 ) ) GLOBAL_UNIT_ASSIGNED_CONTEXT ( ( #17, #163, #262 ) ) REPRESENTATION_CONTEXT ( 'NONE', 'WORKASPACE' ) );
#109 = PRODUCT_CONTEXT ( 'NONE', #330, 'mechanical' ) ;
#110 = CARTESIAN_POINT ( 'NONE',  ( -6.499999999999999112, 6.123233995736765296E-16, 4.999999999999999112 ) ) ;
#111 = ADVANCED_FACE ( 'NONE', ( #342 ), #37, .T. ) ;
#112 = MECHANICAL_DESIGN_GEOMETRIC_PRESENTATION_REPRESENTATION (  '', ( #90 ), #257 ) ;
#113 = CIRCLE ( 'NONE', #174, 4.999999999999999112 ) ;
#114 = VERTEX_POINT ( 'NONE', #211 ) ;
#115 = ADVANCED_FACE ( 'NONE', ( #9, #266 ), #215, .F. ) ;
#116 = ORIENTED_EDGE ( 'NONE', *, *, #85, .T. ) ;
#117 = ORIENTED_EDGE ( 'NONE', *, *, #81, .F. ) ;
#118 = AXIS2_PLACEMENT_3D ( 'NONE', #321, #267, #129 ) ;
#119 = ORIENTED_EDGE ( 'NONE', *, *, #252, .F. ) ;
#120 = ORIENTED_EDGE ( 'NONE', *, *, #85, .F. ) ;
#121 = EDGE_CURVE ( 'NONE', #114, #59, #92, .T. ) ;
#122 = LINE ( 'NONE', #33, #170 ) ;
#123 = FACE_OUTER_BOUND ( 'NONE', #207, .T. ) ;
#124 = DIRECTION ( 'NONE',  ( 0.0000000000000000000, 0.0000000000000000000, -1.000000000000000000 ) ) ;
#125 = ADVANCED_FACE ( 'NONE', ( #102 ), #221, .T. ) ;
#126 = ORIENTED_EDGE ( 'NONE', *, *, #32, .T. ) ;
#127 = CARTESIAN_POINT ( 'NONE',  ( 6.599999999999999645, 0.0000000000000000000, 0.0000000000000000000 ) ) ;
#128 = CARTESIAN_POINT ( 'NONE',  ( 6.599999999999999645, 0.0000000000000000000, 0.0000000000000000000 ) ) ;
#129 = DIRECTION ( 'NONE',  ( 0.0000000000000000000, 0.0000000000000000000, -1.000000000000000000 ) ) ;
#130 = CARTESIAN_POINT ( 'NONE',  ( 6.599999999999999645, 3.214697847761802076E-16, -2.625000000000000000 ) ) ;
#131 = VECTOR ( 'NONE', #322, 1000.000000000000000 ) ;
#132 = DIRECTION ( 'NONE',  ( -1.000000000000000000, -0.0000000000000000000, -0.0000000000000000000 ) ) ;
#133 = ADVANCED_FACE ( 'NONE', ( #65 ), #10, .F. ) ;
#134 = ORIENTED_EDGE ( 'NONE', *, *, #48, .T. ) ;
#135 = DIRECTION ( 'NONE',  ( 0.0000000000000000000, 0.0000000000000000000, -1.000000000000000000 ) ) ;
#136 = CARTESIAN_POINT ( 'NONE',  ( 0.0000000000000000000, 0.0000000000000000000, 0.0000000000000000000 ) ) ;
#137 = DIRECTION ( 'NONE',  ( 0.7071067811865536790, 8.659560562354860135E-17, 0.7071067811865414665 ) ) ;
#138 = SURFACE_STYLE_FILL_AREA ( #20 ) ;
#139 = AXIS2_PLACEMENT_3D ( 'NONE', #101, #11, #124 ) ;
#140 = ADVANCED_FACE ( 'NONE', ( #212, #18 ), #239, .T. ) ;
#141 = EDGE_LOOP ( 'NONE', ( #62, #278, #354, #117 ) ) ;
#142 = DIRECTION ( 'NONE',  ( -0.7071067811865567876, 8.659560562354821925E-17, -0.7071067811865383579 ) ) ;
#143 =( LENGTH_UNIT ( ) NAMED_UNIT ( * ) SI_UNIT ( .MILLI., .METRE. ) );
#144 = EDGE_LOOP ( 'NONE', ( #1, #56, #43, #173 ) ) ;
#145 = PRESENTATION_LAYER_ASSIGNMENT (  '', '', ( #90 ) ) ;
#146 = ADVANCED_FACE ( 'NONE', ( #346 ), #218, .F. ) ;
#147 = AXIS2_PLACEMENT_3D ( 'NONE', #324, #190, #246 ) ;
#148 = ORIENTED_EDGE ( 'NONE', *, *, #353, .T. ) ;
#149 = VECTOR ( 'NONE', #167, 1000.000000000000000 ) ;
#150 = AXIS2_PLACEMENT_3D ( 'NONE', #240, #15, #347 ) ;
#151 = ORIENTED_EDGE ( 'NONE', *, *, #359, .T. ) ;
#152 = EDGE_CURVE ( 'NONE', #363, #84, #199, .T. ) ;
#153 = CARTESIAN_POINT ( 'NONE',  ( 6.599999999999999645, 3.459627207591272175E-16, 2.824999999999999289 ) ) ;
#154 = EDGE_LOOP ( 'NONE', ( #285, #307 ) ) ;
#155 = SURFACE_SIDE_STYLE ('',( #323 ) ) ;
#156 = CARTESIAN_POINT ( 'NONE',  ( 6.499999999999996447, 0.0000000000000000000, 4.999999999999999112 ) ) ;
#157 = VECTOR ( 'NONE', #348, 999.9999999999998863 ) ;
#158 = DIRECTION ( 'NONE',  ( 0.0000000000000000000, 0.0000000000000000000, 1.000000000000000000 ) ) ;
#159 = DIRECTION ( 'NONE',  ( 0.0000000000000000000, 0.0000000000000000000, -1.000000000000000000 ) ) ;
#160 = PRODUCT_DEFINITION ( 'UNKNOWN', '', #273, #289 ) ;
#161 = LINE ( 'NONE', #13, #157 ) ;
#162 = DIRECTION ( 'NONE',  ( 0.0000000000000000000, 0.0000000000000000000, -1.000000000000000000 ) ) ;
#163 =( NAMED_UNIT ( * ) PLANE_ANGLE_UNIT ( ) SI_UNIT ( $, .RADIAN. ) );
#164 = CIRCLE ( 'NONE', #209, 2.625000000000000000 ) ;
#165 = AXIS2_PLACEMENT_3D ( 'NONE', #91, #292, #162 ) ;
#166 =( NAMED_UNIT ( * ) SI_UNIT ( $, .STERADIAN. ) SOLID_ANGLE_UNIT ( ) );
#167 = DIRECTION ( 'NONE',  ( -1.000000000000000000, -0.0000000000000000000, -0.0000000000000000000 ) ) ;
#168 = APPLICATION_PROTOCOL_DEFINITION ( 'draft international standard', 'automotive_design', 1998, #6 ) ;
#169 = CARTESIAN_POINT ( 'NONE',  ( -6.599999999999999645, 0.0000000000000000000, 0.0000000000000000000 ) ) ;
#170 = VECTOR ( 'NONE', #345, 1000.000000000000000 ) ;
#171 = SHAPE_DEFINITION_REPRESENTATION ( #301, #38 ) ;
#172 = ORIENTED_EDGE ( 'NONE', *, *, #73, .F. ) ;
#173 = ORIENTED_EDGE ( 'NONE', *, *, #312, .F. ) ;
#174 = AXIS2_PLACEMENT_3D ( 'NONE', #261, #264, #295 ) ;
#175 = ORIENTED_EDGE ( 'NONE', *, *, #344, .F. ) ;
#176 = ORIENTED_EDGE ( 'NONE', *, *, #152, .T. ) ;
#177 = EDGE_LOOP ( 'NONE', ( #176, #182 ) ) ;
#178 = ORIENTED_EDGE ( 'NONE', *, *, #231, .F. ) ;
#179 = CARTESIAN_POINT ( 'NONE',  ( 6.499999999999996447, 6.123233995736765296E-16, -4.999999999999999112 ) ) ;
#180 = EDGE_CURVE ( 'NONE', #96, #287, #332, .T. ) ;
#181 = DIRECTION ( 'NONE',  ( 0.0000000000000000000, 0.0000000000000000000, -1.000000000000000000 ) ) ;
#182 = ORIENTED_EDGE ( 'NONE', *, *, #97, .T. ) ;
#183 = DIRECTION ( 'NONE',  ( 0.0000000000000000000, 0.0000000000000000000, -1.000000000000000000 ) ) ;
#184 = CIRCLE ( 'NONE', #356, 4.999999999999999112 ) ;
#185 = DIRECTION ( 'NONE',  ( 1.000000000000000000, 0.0000000000000000000, 0.0000000000000000000 ) ) ;
#186 = CIRCLE ( 'NONE', #358, 2.824999999999999289 ) ;
#187 = PRESENTATION_STYLE_ASSIGNMENT (( #67 ) ) ;
#188 = ORIENTED_EDGE ( 'NONE', *, *, #32, .F. ) ;
#189 = EDGE_CURVE ( 'NONE', #308, #200, #281, .T. ) ;
#190 = DIRECTION ( 'NONE',  ( -1.000000000000000000, -0.0000000000000000000, -0.0000000000000000000 ) ) ;
#191 = CARTESIAN_POINT ( 'NONE',  ( 6.599999999999999645, 0.0000000000000000000, 0.0000000000000000000 ) ) ;
#192 = AXIS2_PLACEMENT_3D ( 'NONE', #349, #12, #159 ) ;
#193 =( NAMED_UNIT ( * ) PLANE_ANGLE_UNIT ( ) SI_UNIT ( $, .RADIAN. ) );
#194 =( NAMED_UNIT ( * ) PLANE_ANGLE_UNIT ( ) SI_UNIT ( $, .RADIAN. ) );
#195 = FACE_OUTER_BOUND ( 'NONE', #229, .T. ) ;
#196 = ADVANCED_FACE ( 'NONE', ( #319 ), #46, .F. ) ;
#197 = CARTESIAN_POINT ( 'NONE',  ( 6.599999999999999645, 6.000769315822028768E-16, -4.899999999999997691 ) ) ;
#198 = CYLINDRICAL_SURFACE ( 'NONE', #45, 2.625000000000000000 ) ;
#199 = CIRCLE ( 'NONE', #225, 4.899999999999997691 ) ;
#200 = VERTEX_POINT ( 'NONE', #72 ) ;
#201 = CARTESIAN_POINT ( 'NONE',  ( 6.599999999999999645, 0.0000000000000000000, 0.0000000000000000000 ) ) ;
#202 = ORIENTED_EDGE ( 'NONE', *, *, #97, .F. ) ;
#203 = MANIFOLD_SOLID_BREP ( 'Ôàñêà2', #232 ) ;
#204 = PRODUCT ( 'A204 Äèñòàíöèîííàÿ âòóëêà 5õ13,2 ìì', 'A204 Äèñòàíöèîííàÿ âòóëêà 5õ13,2 ìì', '', ( #109 ) ) ;
#205 = CIRCLE ( 'NONE', #106, 4.899999999999999467 ) ;
#206 = ORIENTED_EDGE ( 'NONE', *, *, #344, .T. ) ;
#207 = EDGE_LOOP ( 'NONE', ( #202, #228, #120, #119 ) ) ;
#208 = DIRECTION ( 'NONE',  ( -1.000000000000000000, 0.0000000000000000000, 0.0000000000000000000 ) ) ;
#209 = AXIS2_PLACEMENT_3D ( 'NONE', #226, #22, #55 ) ;
#210 = CONICAL_SURFACE ( 'NONE', #237, 4.899999999999997691, 0.7853981633974352894 ) ;
#211 = CARTESIAN_POINT ( 'NONE',  ( 6.599999999999999645, 0.0000000000000000000, -2.824999999999999289 ) ) ;
#212 = FACE_BOUND ( 'NONE', #5, .T. ) ;
#213 = EDGE_LOOP ( 'NONE', ( #148, #88 ) ) ;
#214 = DIRECTION ( 'NONE',  ( 1.000000000000000000, 0.0000000000000000000, 0.0000000000000000000 ) ) ;
#215 = PLANE ( 'NONE',  #351 ) ;
#216 = CARTESIAN_POINT ( 'NONE',  ( -6.499999999999999112, 6.123233995736765296E-16, -4.999999999999999112 ) ) ;
#217 = DIRECTION ( 'NONE',  ( 0.7071067811865536790, 0.0000000000000000000, -0.7071067811865414665 ) ) ;
#218 = CONICAL_SURFACE ( 'NONE', #139, 2.625000000000000000, 0.7853981633974492782 ) ;
#219 = CARTESIAN_POINT ( 'NONE',  ( 6.599999999999999645, 0.0000000000000000000, 4.899999999999997691 ) ) ;
#220 = EDGE_CURVE ( 'NONE', #77, #256, #309, .T. ) ;
#221 = CYLINDRICAL_SURFACE ( 'NONE', #147, 4.999999999999999112 ) ;
#222 = DIRECTION ( 'NONE',  ( -1.000000000000000000, -0.0000000000000000000, -0.0000000000000000000 ) ) ;
#223 = DIRECTION ( 'NONE',  ( 1.000000000000000000, -0.0000000000000000000, -0.0000000000000000000 ) ) ;
#224 = EDGE_CURVE ( 'NONE', #96, #59, #161, .T. ) ;
#225 = AXIS2_PLACEMENT_3D ( 'NONE', #343, #39, #98 ) ;
#226 = CARTESIAN_POINT ( 'NONE',  ( 6.400000000000001243, 0.0000000000000000000, 0.0000000000000000000 ) ) ;
#227 = DIRECTION ( 'NONE',  ( -1.000000000000000000, -0.0000000000000000000, -0.0000000000000000000 ) ) ;
#228 = ORIENTED_EDGE ( 'NONE', *, *, #288, .T. ) ;
#229 = EDGE_LOOP ( 'NONE', ( #284, #40, #104, #2 ) ) ;
#230 = ORIENTED_EDGE ( 'NONE', *, *, #152, .F. ) ;
#231 = EDGE_CURVE ( 'NONE', #59, #114, #186, .T. ) ;
#232 = CLOSED_SHELL ( 'NONE', ( #146, #61, #53, #196, #255, #140, #115, #125, #276, #339, #111, #133 ) ) ;
#233 = EDGE_LOOP ( 'NONE', ( #64, #340, #335, #188 ) ) ;
#234 = VERTEX_POINT ( 'NONE', #216 ) ;
#235 = EDGE_CURVE ( 'NONE', #336, #234, #21, .T. ) ;
#236 = CARTESIAN_POINT ( 'NONE',  ( 6.599999999999999645, 0.0000000000000000000, 0.0000000000000000000 ) ) ;
#237 = AXIS2_PLACEMENT_3D ( 'NONE', #245, #208, #313 ) ;
#238 = FACE_OUTER_BOUND ( 'NONE', #233, .T. ) ;
#239 = PLANE ( 'NONE',  #100 ) ;
#240 = CARTESIAN_POINT ( 'NONE',  ( 6.599999999999999645, 0.0000000000000000000, 0.0000000000000000000 ) ) ;
#241 = FILL_AREA_STYLE_COLOUR ( '', #293 ) ;
#242 = DIRECTION ( 'NONE',  ( -1.000000000000000000, -0.0000000000000000000, -0.0000000000000000000 ) ) ;
#243 = DIRECTION ( 'NONE',  ( 1.000000000000000000, 0.0000000000000000000, 0.0000000000000000000 ) ) ;
#244 = DIRECTION ( 'NONE',  ( 1.000000000000000000, 0.0000000000000000000, 0.0000000000000000000 ) ) ;
#245 = CARTESIAN_POINT ( 'NONE',  ( 6.599999999999999645, 0.0000000000000000000, 0.0000000000000000000 ) ) ;
#246 = DIRECTION ( 'NONE',  ( 0.0000000000000000000, 0.0000000000000000000, 1.000000000000000000 ) ) ;
#247 = EDGE_LOOP ( 'NONE', ( #311, #54, #57, #178 ) ) ;
#248 = DIRECTION ( 'NONE',  ( 0.0000000000000000000, 0.0000000000000000000, 1.000000000000000000 ) ) ;
#249 = AXIS2_PLACEMENT_3D ( 'NONE', #318, #294, #94 ) ;
#250 = SURFACE_STYLE_USAGE ( .BOTH. , #52 ) ;
#251 = FACE_OUTER_BOUND ( 'NONE', #338, .T. ) ;
#252 = EDGE_CURVE ( 'NONE', #363, #4, #350, .T. ) ;
#253 = CONICAL_SURFACE ( 'NONE', #25, 4.999999999999999112, 0.7853981633974396193 ) ;
#254 = ORIENTED_EDGE ( 'NONE', *, *, #353, .F. ) ;
#255 = ADVANCED_FACE ( 'NONE', ( #83 ), #107, .T. ) ;
#256 = VERTEX_POINT ( 'NONE', #328 ) ;
#257 =( GEOMETRIC_REPRESENTATION_CONTEXT ( 3 ) GLOBAL_UNCERTAINTY_ASSIGNED_CONTEXT ( ( #317 ) ) GLOBAL_UNIT_ASSIGNED_CONTEXT ( ( #79, #194, #357 ) ) REPRESENTATION_CONTEXT ( 'NONE', 'WORKASPACE' ) );
#258 = CIRCLE ( 'NONE', #364, 4.899999999999997691 ) ;
#259 = ORIENTED_EDGE ( 'NONE', *, *, #121, .T. ) ;
#260 = LINE ( 'NONE', #290, #131 ) ;
#261 = CARTESIAN_POINT ( 'NONE',  ( 6.499999999999996447, 0.0000000000000000000, 0.0000000000000000000 ) ) ;
#262 =( NAMED_UNIT ( * ) SI_UNIT ( $, .STERADIAN. ) SOLID_ANGLE_UNIT ( ) );
#263 = AXIS2_PLACEMENT_3D ( 'NONE', #265, #41, #181 ) ;
#264 = DIRECTION ( 'NONE',  ( -1.000000000000000000, 0.0000000000000000000, 0.0000000000000000000 ) ) ;
#265 = CARTESIAN_POINT ( 'NONE',  ( -6.599999999999999645, 0.0000000000000000000, 0.0000000000000000000 ) ) ;
#266 = FACE_BOUND ( 'NONE', #154, .T. ) ;
#267 = DIRECTION ( 'NONE',  ( 1.000000000000000000, -0.0000000000000000000, -0.0000000000000000000 ) ) ;
#268 = LINE ( 'NONE', #130, #63 ) ;
#269 = CARTESIAN_POINT ( 'NONE',  ( 6.599999999999999645, 0.0000000000000000000, 0.0000000000000000000 ) ) ;
#270 = CIRCLE ( 'NONE', #165, 4.999999999999999112 ) ;
#271 = PRODUCT_RELATED_PRODUCT_CATEGORY ( 'part', '', ( #204 ) ) ;
#272 = CARTESIAN_POINT ( 'NONE',  ( -6.499999999999999112, 0.0000000000000000000, 0.0000000000000000000 ) ) ;
#273 = PRODUCT_DEFINITION_FORMATION_WITH_SPECIFIED_SOURCE ( 'ANY', '', #204, .NOT_KNOWN. ) ;
#274 = MECHANICAL_DESIGN_GEOMETRIC_PRESENTATION_REPRESENTATION (  '', ( #326 ), #108 ) ;
#275 = DIRECTION ( 'NONE',  ( 0.0000000000000000000, 0.0000000000000000000, -1.000000000000000000 ) ) ;
#276 = ADVANCED_FACE ( 'NONE', ( #195 ), #198, .F. ) ;
#277 = PRESENTATION_STYLE_ASSIGNMENT (( #250 ) ) ;
#278 = ORIENTED_EDGE ( 'NONE', *, *, #16, .T. ) ;
#279 = DIRECTION ( 'NONE',  ( -1.000000000000000000, -0.0000000000000000000, -0.0000000000000000000 ) ) ;
#280 = VECTOR ( 'NONE', #137, 1000.000000000000000 ) ;
#281 = CIRCLE ( 'NONE', #30, 2.625000000000000000 ) ;
#282 = EDGE_CURVE ( 'NONE', #287, #96, #164, .T. ) ;
#283 = ORIENTED_EDGE ( 'NONE', *, *, #288, .F. ) ;
#284 = ORIENTED_EDGE ( 'NONE', *, *, #16, .F. ) ;
#285 = ORIENTED_EDGE ( 'NONE', *, *, #58, .T. ) ;
#286 = CONICAL_SURFACE ( 'NONE', #249, 4.999999999999999112, 0.7853981633974396193 ) ;
#287 = VERTEX_POINT ( 'NONE', #329 ) ;
#288 = EDGE_CURVE ( 'NONE', #84, #60, #355, .T. ) ;
#289 = PRODUCT_DEFINITION_CONTEXT ( 'detailed design', #6, 'design' ) ;
#290 = CARTESIAN_POINT ( 'NONE',  ( 6.599999999999999645, 6.123233995736765296E-16, -4.999999999999999112 ) ) ;
#291 = CARTESIAN_POINT ( 'NONE',  ( 6.400000000000001243, 0.0000000000000000000, 0.0000000000000000000 ) ) ;
#292 = DIRECTION ( 'NONE',  ( -1.000000000000000000, 0.0000000000000000000, 0.0000000000000000000 ) ) ;
#293 = COLOUR_RGB ( '',0.8980392156862745390, 0.9176470588235293713, 0.9294117647058823817 ) ;
#294 = DIRECTION ( 'NONE',  ( 1.000000000000000000, -0.0000000000000000000, -0.0000000000000000000 ) ) ;
#295 = DIRECTION ( 'NONE',  ( 0.0000000000000000000, 0.0000000000000000000, -1.000000000000000000 ) ) ;
#296 = DIRECTION ( 'NONE',  ( 0.0000000000000000000, 0.0000000000000000000, -1.000000000000000000 ) ) ;
#297 = EDGE_CURVE ( 'NONE', #77, #336, #78, .T. ) ;
#298 = DIRECTION ( 'NONE',  ( 0.0000000000000000000, 0.0000000000000000000, -1.000000000000000000 ) ) ;
#299 = AXIS2_PLACEMENT_3D ( 'NONE', #291, #69, #298 ) ;
#300 = AXIS2_PLACEMENT_3D ( 'NONE', #128, #71, #352 ) ;
#301 = PRODUCT_DEFINITION_SHAPE ( 'NONE', 'NONE',  #160 ) ;
#302 = CARTESIAN_POINT ( 'NONE',  ( 6.400000000000001243, 0.0000000000000000000, -2.625000000000000000 ) ) ;
#303 = DIRECTION ( 'NONE',  ( 0.0000000000000000000, 0.0000000000000000000, 1.000000000000000000 ) ) ;
#304 = CARTESIAN_POINT ( 'NONE',  ( -6.499999999999999112, 0.0000000000000000000, 4.999999999999999112 ) ) ;
#305 = VECTOR ( 'NONE', #103, 1000.000000000000000 ) ;
#306 = DIRECTION ( 'NONE',  ( 0.0000000000000000000, 0.0000000000000000000, 1.000000000000000000 ) ) ;
#307 = ORIENTED_EDGE ( 'NONE', *, *, #189, .T. ) ;
#308 = VERTEX_POINT ( 'NONE', #327 ) ;
#309 = CIRCLE ( 'NONE', #263, 4.899999999999999467 ) ;
#310 = ORIENTED_EDGE ( 'NONE', *, *, #73, .T. ) ;
#311 = ORIENTED_EDGE ( 'NONE', *, *, #224, .F. ) ;
#312 = EDGE_CURVE ( 'NONE', #287, #114, #360, .T. ) ;
#313 = DIRECTION ( 'NONE',  ( 0.0000000000000000000, 0.0000000000000000000, 1.000000000000000000 ) ) ;
#314 = AXIS2_PLACEMENT_3D ( 'NONE', #136, #303, #244 ) ;
#315 = CARTESIAN_POINT ( 'NONE',  ( -6.499999999999999112, 0.0000000000000000000, -4.999999999999999112 ) ) ;
#316 = CARTESIAN_POINT ( 'NONE',  ( 6.400000000000001243, 0.0000000000000000000, 0.0000000000000000000 ) ) ;
#317 = UNCERTAINTY_MEASURE_WITH_UNIT (LENGTH_MEASURE( 1.000000000000000082E-05 ), #79, 'distance_accuracy_value', 'NONE');
#318 = CARTESIAN_POINT ( 'NONE',  ( -6.499999999999999112, 0.0000000000000000000, 0.0000000000000000000 ) ) ;
#319 = FACE_OUTER_BOUND ( 'NONE', #141, .T. ) ;
#320 = CARTESIAN_POINT ( 'NONE',  ( -6.599999999999999645, 0.0000000000000000000, 0.0000000000000000000 ) ) ;
#321 = CARTESIAN_POINT ( 'NONE',  ( -6.499999999999999112, 0.0000000000000000000, 0.0000000000000000000 ) ) ;
#322 = DIRECTION ( 'NONE',  ( -1.000000000000000000, -0.0000000000000000000, -0.0000000000000000000 ) ) ;
#323 = SURFACE_STYLE_FILL_AREA ( #34 ) ;
#324 = CARTESIAN_POINT ( 'NONE',  ( 6.599999999999999645, 0.0000000000000000000, 0.0000000000000000000 ) ) ;
#325 = DIRECTION ( 'NONE',  ( 0.0000000000000000000, 0.0000000000000000000, -1.000000000000000000 ) ) ;
#326 = STYLED_ITEM ( 'NONE', ( #187 ), #203 ) ;
#327 = CARTESIAN_POINT ( 'NONE',  ( -6.599999999999999645, 3.214697847761802076E-16, -2.625000000000000000 ) ) ;
#328 = CARTESIAN_POINT ( 'NONE',  ( -6.599999999999999645, 0.0000000000000000000, -4.899999999999999467 ) ) ;
#329 = CARTESIAN_POINT ( 'NONE',  ( 6.400000000000001243, 3.214697847761802076E-16, -2.625000000000000000 ) ) ;
#330 = APPLICATION_CONTEXT ( 'automotive_design' ) ;
#331 =( GEOMETRIC_REPRESENTATION_CONTEXT ( 3 ) GLOBAL_UNCERTAINTY_ASSIGNED_CONTEXT ( ( #341 ) ) GLOBAL_UNIT_ASSIGNED_CONTEXT ( ( #143, #193, #166 ) ) REPRESENTATION_CONTEXT ( 'NONE', 'WORKASPACE' ) );
#332 = CIRCLE ( 'NONE', #26, 2.625000000000000000 ) ;
#333 = LINE ( 'NONE', #50, #149 ) ;
#334 = ORIENTED_EDGE ( 'NONE', *, *, #297, .F. ) ;
#335 = ORIENTED_EDGE ( 'NONE', *, *, #359, .F. ) ;
#336 = VERTEX_POINT ( 'NONE', #304 ) ;
#337 = PRESENTATION_LAYER_ASSIGNMENT (  '', '', ( #326 ) ) ;
#338 = EDGE_LOOP ( 'NONE', ( #334, #254, #126, #42 ) ) ;
#339 = ADVANCED_FACE ( 'NONE', ( #251 ), #253, .T. ) ;
#340 = ORIENTED_EDGE ( 'NONE', *, *, #297, .T. ) ;
#341 = UNCERTAINTY_MEASURE_WITH_UNIT (LENGTH_MEASURE( 1.000000000000000082E-05 ), #143, 'distance_accuracy_value', 'NONE');
#342 = FACE_OUTER_BOUND ( 'NONE', #87, .T. ) ;
#343 = CARTESIAN_POINT ( 'NONE',  ( 6.599999999999999645, 0.0000000000000000000, 0.0000000000000000000 ) ) ;
#344 = EDGE_CURVE ( 'NONE', #4, #336, #333, .T. ) ;
#345 = DIRECTION ( 'NONE',  ( -1.000000000000000000, -0.0000000000000000000, -0.0000000000000000000 ) ) ;
#346 = FACE_OUTER_BOUND ( 'NONE', #144, .T. ) ;
#347 = DIRECTION ( 'NONE',  ( 0.0000000000000000000, 0.0000000000000000000, 1.000000000000000000 ) ) ;
#348 = DIRECTION ( 'NONE',  ( 0.7071067811865467956, 8.659560562354942719E-17, 0.7071067811865483499 ) ) ;
#349 = CARTESIAN_POINT ( 'NONE',  ( -6.599999999999999645, 0.0000000000000000000, 0.0000000000000000000 ) ) ;
#350 = LINE ( 'NONE', #219, #305 ) ;
#351 = AXIS2_PLACEMENT_3D ( 'NONE', #320, #185, #14 ) ;
#352 = DIRECTION ( 'NONE',  ( 0.0000000000000000000, 0.0000000000000000000, -1.000000000000000000 ) ) ;
#353 = EDGE_CURVE ( 'NONE', #256, #77, #205, .T. ) ;
#354 = ORIENTED_EDGE ( 'NONE', *, *, #58, .F. ) ;
#355 = LINE ( 'NONE', #197, #36 ) ;
#356 = AXIS2_PLACEMENT_3D ( 'NONE', #24, #223, #275 ) ;
#357 =( NAMED_UNIT ( * ) SI_UNIT ( $, .STERADIAN. ) SOLID_ANGLE_UNIT ( ) );
#358 = AXIS2_PLACEMENT_3D ( 'NONE', #269, #132, #325 ) ;
#359 = EDGE_CURVE ( 'NONE', #234, #336, #184, .T. ) ;
#360 = LINE ( 'NONE', #302, #3 ) ;
#361 = DIRECTION ( 'NONE',  ( 1.000000000000000000, -0.0000000000000000000, -0.0000000000000000000 ) ) ;
#362 = DIRECTION ( 'NONE',  ( 0.0000000000000000000, 0.0000000000000000000, -1.000000000000000000 ) ) ;
#363 = VERTEX_POINT ( 'NONE', #76 ) ;
#364 = AXIS2_PLACEMENT_3D ( 'NONE', #236, #99, #70 ) ;
ENDSEC;
END-ISO-10303-21;
