ISO-10303-21;
HEADER;
FILE_DESCRIPTION (( 'STEP AP214' ),
    '1' );
FILE_NAME ('A219 Òðàïåöåèäàëüíûé âèíò 8õ781 ìì, 4-õ çàõîäíûé, øàã 2 ìì.STEP',
    '2019-09-11T09:46:56',
    ( 'Windows User' ),
    ( '' ),
    'SwSTEP 2.0',
    'SolidWorks 2018',
    '' );
FILE_SCHEMA (( 'AUTOMOTIVE_DESIGN' ));
ENDSEC;

DATA;
#1 = CARTESIAN_POINT ( 'NONE',  ( 781.0000000000000000, 0.0000000000000000000, 0.0000000000000000000 ) ) ;
#2 = CARTESIAN_POINT ( 'NONE',  ( 781.0000000000000000, 0.0000000000000000000, 0.0000000000000000000 ) ) ;
#3 = EDGE_CURVE ( 'NONE', #145, #104, #85, .T. ) ;
#4 = DIRECTION ( 'NONE',  ( 0.0000000000000000000, 0.0000000000000000000, 1.000000000000000000 ) ) ;
#5 = UNCERTAINTY_MEASURE_WITH_UNIT (LENGTH_MEASURE( 1.000000000000000082E-05 ), #156, 'distance_accuracy_value', 'NONE');
#6 = ORIENTED_EDGE ( 'NONE', *, *, #94, .T. ) ;
#7 = DIRECTION ( 'NONE',  ( 0.0000000000000000000, 0.0000000000000000000, -1.000000000000000000 ) ) ;
#8 = APPLICATION_CONTEXT ( 'automotive_design' ) ;
#9 = VECTOR ( 'NONE', #136, 1000.000000000000000 ) ;
#10 = EDGE_CURVE ( 'NONE', #145, #22, #149, .T. ) ;
#11 = FACE_OUTER_BOUND ( 'NONE', #160, .T. ) ;
#12 = COLOUR_RGB ( '',0.7960784313725489669, 0.8235294117647058432, 0.9372549019607843146 ) ;
#13 = COLOUR_RGB ( '',0.7960784313725489669, 0.8235294117647058432, 0.9372549019607843146 ) ;
#14 = EDGE_CURVE ( 'NONE', #155, #22, #83, .T. ) ;
#15 = ORIENTED_EDGE ( 'NONE', *, *, #125, .F. ) ;
#16 = PRESENTATION_STYLE_ASSIGNMENT (( #78 ) ) ;
#17 = MECHANICAL_DESIGN_GEOMETRIC_PRESENTATION_REPRESENTATION (  '', ( #148 ), #32 ) ;
#18 =( LENGTH_UNIT ( ) NAMED_UNIT ( * ) SI_UNIT ( .MILLI., .METRE. ) );
#19 = FILL_AREA_STYLE_COLOUR ( '', #159 ) ;
#20 = ADVANCED_FACE ( 'NONE', ( #11 ), #51, .F. ) ;
#21 = PRODUCT_CONTEXT ( 'NONE', #24, 'mechanical' ) ;
#22 = VERTEX_POINT ( 'NONE', #97 ) ;
#23 = AXIS2_PLACEMENT_3D ( 'NONE', #165, #135, #163 ) ;
#24 = APPLICATION_CONTEXT ( 'automotive_design' ) ;
#25 = FILL_AREA_STYLE ('',( #57 ) ) ;
#26 = CYLINDRICAL_SURFACE ( 'NONE', #43, 4.000000000000000000 ) ;
#27 = PLANE ( 'NONE',  #65 ) ;
#28 = UNCERTAINTY_MEASURE_WITH_UNIT (LENGTH_MEASURE( 1.000000000000000082E-05 ), #90, 'distance_accuracy_value', 'NONE');
#29 = STYLED_ITEM ( 'NONE', ( #134 ), #54 ) ;
#30 = ORIENTED_EDGE ( 'NONE', *, *, #94, .F. ) ;
#31 = PRESENTATION_LAYER_ASSIGNMENT (  '', '', ( #158 ) ) ;
#32 =( GEOMETRIC_REPRESENTATION_CONTEXT ( 3 ) GLOBAL_UNCERTAINTY_ASSIGNED_CONTEXT ( ( #5 ) ) GLOBAL_UNIT_ASSIGNED_CONTEXT ( ( #156, #81, #115 ) ) REPRESENTATION_CONTEXT ( 'NONE', 'WORKASPACE' ) );
#33 = EDGE_LOOP ( 'NONE', ( #61, #130 ) ) ;
#34 = DIRECTION ( 'NONE',  ( 0.0000000000000000000, 0.0000000000000000000, -1.000000000000000000 ) ) ;
#35 = FILL_AREA_STYLE ('',( #96 ) ) ;
#36 = DIRECTION ( 'NONE',  ( 1.000000000000000000, 0.0000000000000000000, 0.0000000000000000000 ) ) ;
#37 = ORIENTED_EDGE ( 'NONE', *, *, #3, .F. ) ;
#38 = PRODUCT_DEFINITION_FORMATION_WITH_SPECIFIED_SOURCE ( 'ANY', '', #131, .NOT_KNOWN. ) ;
#39 = DIRECTION ( 'NONE',  ( 0.0000000000000000000, 0.0000000000000000000, -1.000000000000000000 ) ) ;
#40 = CARTESIAN_POINT ( 'NONE',  ( 781.0000000000000000, 4.898587196589412829E-16, -4.000000000000000000 ) ) ;
#41 = DIRECTION ( 'NONE',  ( 1.000000000000000000, 0.0000000000000000000, 0.0000000000000000000 ) ) ;
#42 = CARTESIAN_POINT ( 'NONE',  ( 0.0000000000000000000, 0.0000000000000000000, 0.0000000000000000000 ) ) ;
#43 = AXIS2_PLACEMENT_3D ( 'NONE', #109, #75, #53 ) ;
#44 = ORIENTED_EDGE ( 'NONE', *, *, #125, .T. ) ;
#45 = PRESENTATION_LAYER_ASSIGNMENT (  '', '', ( #117 ) ) ;
#46 = UNCERTAINTY_MEASURE_WITH_UNIT (LENGTH_MEASURE( 1.000000000000000082E-05 ), #112, 'distance_accuracy_value', 'NONE');
#47 = CARTESIAN_POINT ( 'NONE',  ( 781.0000000000000000, 4.898587196589412829E-16, -4.000000000000000000 ) ) ;
#48 = CYLINDRICAL_SURFACE ( 'NONE', #100, 4.000000000000000000 ) ;
#49 = AXIS2_PLACEMENT_3D ( 'NONE', #137, #128, #7 ) ;
#50 = FACE_OUTER_BOUND ( 'NONE', #138, .T. ) ;
#51 = PLANE ( 'NONE',  #23 ) ;
#52 = CARTESIAN_POINT ( 'NONE',  ( 0.0000000000000000000, 0.0000000000000000000, 0.0000000000000000000 ) ) ;
#53 = DIRECTION ( 'NONE',  ( 0.0000000000000000000, 0.0000000000000000000, 1.000000000000000000 ) ) ;
#54 = ADVANCED_BREP_SHAPE_REPRESENTATION ( 'A219 T¨ðÿõ¡õøôðû¹ývù òøýª 8¿781 üü, 4-¿ ÷ð¿þôývù, °ðó 2 üü', ( #139, #143 ), #72 ) ;
#55 = AXIS2_PLACEMENT_3D ( 'NONE', #52, #122, #119 ) ;
#56 = SURFACE_SIDE_STYLE ('',( #95 ) ) ;
#57 = FILL_AREA_STYLE_COLOUR ( '', #162 ) ;
#58 = VECTOR ( 'NONE', #150, 1000.000000000000000 ) ;
#59 = PRODUCT_RELATED_PRODUCT_CATEGORY ( 'part', '', ( #131 ) ) ;
#60 = ORIENTED_EDGE ( 'NONE', *, *, #10, .T. ) ;
#61 = ORIENTED_EDGE ( 'NONE', *, *, #93, .T. ) ;
#62 =( GEOMETRIC_REPRESENTATION_CONTEXT ( 3 ) GLOBAL_UNCERTAINTY_ASSIGNED_CONTEXT ( ( #46 ) ) GLOBAL_UNIT_ASSIGNED_CONTEXT ( ( #112, #67, #80 ) ) REPRESENTATION_CONTEXT ( 'NONE', 'WORKASPACE' ) );
#63 = PRODUCT_DEFINITION_CONTEXT ( 'detailed design', #8, 'design' ) ;
#64 = ORIENTED_EDGE ( 'NONE', *, *, #14, .T. ) ;
#65 = AXIS2_PLACEMENT_3D ( 'NONE', #129, #41, #39 ) ;
#66 = SURFACE_STYLE_USAGE ( .BOTH. , #121 ) ;
#67 =( NAMED_UNIT ( * ) PLANE_ANGLE_UNIT ( ) SI_UNIT ( $, .RADIAN. ) );
#68 = CIRCLE ( 'NONE', #49, 4.000000000000000000 ) ;
#69 = CARTESIAN_POINT ( 'NONE',  ( 781.0000000000000000, 0.0000000000000000000, 4.000000000000000000 ) ) ;
#70 = SHAPE_DEFINITION_REPRESENTATION ( #144, #54 ) ;
#71 = DIRECTION ( 'NONE',  ( 1.000000000000000000, 0.0000000000000000000, 0.0000000000000000000 ) ) ;
#72 =( GEOMETRIC_REPRESENTATION_CONTEXT ( 3 ) GLOBAL_UNCERTAINTY_ASSIGNED_CONTEXT ( ( #28 ) ) GLOBAL_UNIT_ASSIGNED_CONTEXT ( ( #90, #76, #153 ) ) REPRESENTATION_CONTEXT ( 'NONE', 'WORKASPACE' ) );
#73 = ORIENTED_EDGE ( 'NONE', *, *, #14, .F. ) ;
#74 = SURFACE_STYLE_FILL_AREA ( #123 ) ;
#75 = DIRECTION ( 'NONE',  ( -1.000000000000000000, -0.0000000000000000000, -0.0000000000000000000 ) ) ;
#76 =( NAMED_UNIT ( * ) PLANE_ANGLE_UNIT ( ) SI_UNIT ( $, .RADIAN. ) );
#77 = DIRECTION ( 'NONE',  ( 0.0000000000000000000, 0.0000000000000000000, -1.000000000000000000 ) ) ;
#78 = SURFACE_STYLE_USAGE ( .BOTH. , #56 ) ;
#79 = ADVANCED_FACE ( 'NONE', ( #50 ), #48, .T. ) ;
#80 =( NAMED_UNIT ( * ) SI_UNIT ( $, .STERADIAN. ) SOLID_ANGLE_UNIT ( ) );
#81 =( NAMED_UNIT ( * ) PLANE_ANGLE_UNIT ( ) SI_UNIT ( $, .RADIAN. ) );
#82 = MECHANICAL_DESIGN_GEOMETRIC_PRESENTATION_REPRESENTATION (  '', ( #117 ), #118 ) ;
#83 = CIRCLE ( 'NONE', #55, 4.000000000000000000 ) ;
#84 = DIRECTION ( 'NONE',  ( 0.0000000000000000000, 0.0000000000000000000, 1.000000000000000000 ) ) ;
#85 = CIRCLE ( 'NONE', #164, 4.000000000000000000 ) ;
#86 = FACE_OUTER_BOUND ( 'NONE', #107, .T. ) ;
#87 = ORIENTED_EDGE ( 'NONE', *, *, #10, .F. ) ;
#88 =( LENGTH_UNIT ( ) NAMED_UNIT ( * ) SI_UNIT ( .MILLI., .METRE. ) );
#89 = ADVANCED_FACE ( 'NONE', ( #86 ), #26, .T. ) ;
#90 =( LENGTH_UNIT ( ) NAMED_UNIT ( * ) SI_UNIT ( .MILLI., .METRE. ) );
#91 = SURFACE_STYLE_USAGE ( .BOTH. , #154 ) ;
#92 = CLOSED_SHELL ( 'NONE', ( #89, #79, #127, #20 ) ) ;
#93 = EDGE_CURVE ( 'NONE', #104, #145, #68, .T. ) ;
#94 = EDGE_CURVE ( 'NONE', #104, #155, #116, .T. ) ;
#95 = SURFACE_STYLE_FILL_AREA ( #111 ) ;
#96 = FILL_AREA_STYLE_COLOUR ( '', #13 ) ;
#97 = CARTESIAN_POINT ( 'NONE',  ( 0.0000000000000000000, 4.898587196589412829E-16, -4.000000000000000000 ) ) ;
#98 = DIRECTION ( 'NONE',  ( -1.000000000000000000, -0.0000000000000000000, -0.0000000000000000000 ) ) ;
#99 =( NAMED_UNIT ( * ) SI_UNIT ( $, .STERADIAN. ) SOLID_ANGLE_UNIT ( ) );
#100 = AXIS2_PLACEMENT_3D ( 'NONE', #2, #98, #84 ) ;
#101 = SURFACE_SIDE_STYLE ('',( #74 ) ) ;
#102 = ORIENTED_EDGE ( 'NONE', *, *, #93, .F. ) ;
#103 = DIRECTION ( 'NONE',  ( 1.000000000000000000, 0.0000000000000000000, 0.0000000000000000000 ) ) ;
#104 = VERTEX_POINT ( 'NONE', #69 ) ;
#105 = CIRCLE ( 'NONE', #147, 4.000000000000000000 ) ;
#106 = MECHANICAL_DESIGN_GEOMETRIC_PRESENTATION_REPRESENTATION (  '', ( #158 ), #62 ) ;
#107 = EDGE_LOOP ( 'NONE', ( #37, #60, #44, #30 ) ) ;
#108 = PRESENTATION_LAYER_ASSIGNMENT (  '', '', ( #29 ) ) ;
#109 = CARTESIAN_POINT ( 'NONE',  ( 781.0000000000000000, 0.0000000000000000000, 0.0000000000000000000 ) ) ;
#110 =( NAMED_UNIT ( * ) PLANE_ANGLE_UNIT ( ) SI_UNIT ( $, .RADIAN. ) );
#111 = FILL_AREA_STYLE ('',( #19 ) ) ;
#112 =( LENGTH_UNIT ( ) NAMED_UNIT ( * ) SI_UNIT ( .MILLI., .METRE. ) );
#113 = APPLICATION_PROTOCOL_DEFINITION ( 'draft international standard', 'automotive_design', 1998, #8 ) ;
#114 = PRESENTATION_STYLE_ASSIGNMENT (( #91 ) ) ;
#115 =( NAMED_UNIT ( * ) SI_UNIT ( $, .STERADIAN. ) SOLID_ANGLE_UNIT ( ) );
#116 = LINE ( 'NONE', #126, #9 ) ;
#117 = STYLED_ITEM ( 'NONE', ( #169 ), #79 ) ;
#118 =( GEOMETRIC_REPRESENTATION_CONTEXT ( 3 ) GLOBAL_UNCERTAINTY_ASSIGNED_CONTEXT ( ( #157 ) ) GLOBAL_UNIT_ASSIGNED_CONTEXT ( ( #18, #110, #99 ) ) REPRESENTATION_CONTEXT ( 'NONE', 'WORKASPACE' ) );
#119 = DIRECTION ( 'NONE',  ( 0.0000000000000000000, 0.0000000000000000000, -1.000000000000000000 ) ) ;
#120 = SURFACE_STYLE_FILL_AREA ( #25 ) ;
#121 = SURFACE_SIDE_STYLE ('',( #133 ) ) ;
#122 = DIRECTION ( 'NONE',  ( 1.000000000000000000, 0.0000000000000000000, 0.0000000000000000000 ) ) ;
#123 = FILL_AREA_STYLE ('',( #141 ) ) ;
#124 =( NAMED_UNIT ( * ) PLANE_ANGLE_UNIT ( ) SI_UNIT ( $, .RADIAN. ) );
#125 = EDGE_CURVE ( 'NONE', #22, #155, #105, .T. ) ;
#126 = CARTESIAN_POINT ( 'NONE',  ( 781.0000000000000000, 0.0000000000000000000, 4.000000000000000000 ) ) ;
#127 = ADVANCED_FACE ( 'NONE', ( #151 ), #27, .T. ) ;
#128 = DIRECTION ( 'NONE',  ( 1.000000000000000000, 0.0000000000000000000, 0.0000000000000000000 ) ) ;
#129 = CARTESIAN_POINT ( 'NONE',  ( 781.0000000000000000, 0.0000000000000000000, 0.0000000000000000000 ) ) ;
#130 = ORIENTED_EDGE ( 'NONE', *, *, #3, .T. ) ;
#131 = PRODUCT ( 'A219 Òðàïåöåèäàëüíûé âèíò 8õ781 ìì, 4-õ çàõîäíûé, øàã 2 ìì', 'A219 Òðàïåöåèäàëüíûé âèíò 8õ781 ìì, 4-õ çàõîäíûé, øàã 2 ìì', '', ( #21 ) ) ;
#132 = PRESENTATION_LAYER_ASSIGNMENT (  '', '', ( #148 ) ) ;
#133 = SURFACE_STYLE_FILL_AREA ( #35 ) ;
#134 = PRESENTATION_STYLE_ASSIGNMENT (( #142 ) ) ;
#135 = DIRECTION ( 'NONE',  ( 1.000000000000000000, 0.0000000000000000000, 0.0000000000000000000 ) ) ;
#136 = DIRECTION ( 'NONE',  ( -1.000000000000000000, -0.0000000000000000000, -0.0000000000000000000 ) ) ;
#137 = CARTESIAN_POINT ( 'NONE',  ( 781.0000000000000000, 0.0000000000000000000, 0.0000000000000000000 ) ) ;
#138 = EDGE_LOOP ( 'NONE', ( #87, #102, #6, #64 ) ) ;
#139 = MANIFOLD_SOLID_BREP ( 'Áîáûøêà-Âûòÿíóòü1', #92 ) ;
#140 = CARTESIAN_POINT ( 'NONE',  ( 0.0000000000000000000, 0.0000000000000000000, 0.0000000000000000000 ) ) ;
#141 = FILL_AREA_STYLE_COLOUR ( '', #12 ) ;
#142 = SURFACE_STYLE_USAGE ( .BOTH. , #101 ) ;
#143 = AXIS2_PLACEMENT_3D ( 'NONE', #140, #4, #71 ) ;
#144 = PRODUCT_DEFINITION_SHAPE ( 'NONE', 'NONE',  #170 ) ;
#145 = VERTEX_POINT ( 'NONE', #40 ) ;
#146 = MECHANICAL_DESIGN_GEOMETRIC_PRESENTATION_REPRESENTATION (  '', ( #29 ), #152 ) ;
#147 = AXIS2_PLACEMENT_3D ( 'NONE', #42, #103, #77 ) ;
#148 = STYLED_ITEM ( 'NONE', ( #16 ), #89 ) ;
#149 = LINE ( 'NONE', #47, #58 ) ;
#150 = DIRECTION ( 'NONE',  ( -1.000000000000000000, -0.0000000000000000000, -0.0000000000000000000 ) ) ;
#151 = FACE_OUTER_BOUND ( 'NONE', #33, .T. ) ;
#152 =( GEOMETRIC_REPRESENTATION_CONTEXT ( 3 ) GLOBAL_UNCERTAINTY_ASSIGNED_CONTEXT ( ( #161 ) ) GLOBAL_UNIT_ASSIGNED_CONTEXT ( ( #88, #124, #166 ) ) REPRESENTATION_CONTEXT ( 'NONE', 'WORKASPACE' ) );
#153 =( NAMED_UNIT ( * ) SI_UNIT ( $, .STERADIAN. ) SOLID_ANGLE_UNIT ( ) );
#154 = SURFACE_SIDE_STYLE ('',( #120 ) ) ;
#155 = VERTEX_POINT ( 'NONE', #167 ) ;
#156 =( LENGTH_UNIT ( ) NAMED_UNIT ( * ) SI_UNIT ( .MILLI., .METRE. ) );
#157 = UNCERTAINTY_MEASURE_WITH_UNIT (LENGTH_MEASURE( 1.000000000000000082E-05 ), #18, 'distance_accuracy_value', 'NONE');
#158 = STYLED_ITEM ( 'NONE', ( #114 ), #139 ) ;
#159 = COLOUR_RGB ( '',0.7960784313725489669, 0.8235294117647058432, 0.9372549019607843146 ) ;
#160 = EDGE_LOOP ( 'NONE', ( #73, #15 ) ) ;
#161 = UNCERTAINTY_MEASURE_WITH_UNIT (LENGTH_MEASURE( 1.000000000000000082E-05 ), #88, 'distance_accuracy_value', 'NONE');
#162 = COLOUR_RGB ( '',0.7960784313725489669, 0.8235294117647058432, 0.9372549019607843146 ) ;
#163 = DIRECTION ( 'NONE',  ( 0.0000000000000000000, 0.0000000000000000000, -1.000000000000000000 ) ) ;
#164 = AXIS2_PLACEMENT_3D ( 'NONE', #1, #36, #34 ) ;
#165 = CARTESIAN_POINT ( 'NONE',  ( 0.0000000000000000000, 0.0000000000000000000, 0.0000000000000000000 ) ) ;
#166 =( NAMED_UNIT ( * ) SI_UNIT ( $, .STERADIAN. ) SOLID_ANGLE_UNIT ( ) );
#167 = CARTESIAN_POINT ( 'NONE',  ( 0.0000000000000000000, 0.0000000000000000000, 4.000000000000000000 ) ) ;
#168 = APPLICATION_PROTOCOL_DEFINITION ( 'draft international standard', 'automotive_design', 1998, #24 ) ;
#169 = PRESENTATION_STYLE_ASSIGNMENT (( #66 ) ) ;
#170 = PRODUCT_DEFINITION ( 'UNKNOWN', '', #38, #63 ) ;
ENDSEC;
END-ISO-10303-21;
