ISO-10303-21;
HEADER;
FILE_DESCRIPTION (( 'STEP AP214' ),
    '1' );
FILE_NAME ('A215 Òðàïåöåèäàëüíûé âèíò 8õ281 ìì, 4-õ çàõîäíûé, øàã 2 ìì.STEP',
    '2019-10-02T08:10:31',
    ( 'Windows User' ),
    ( '' ),
    'SwSTEP 2.0',
    'SolidWorks 2019',
    '' );
FILE_SCHEMA (( 'AUTOMOTIVE_DESIGN' ));
ENDSEC;

DATA;
#1 = VERTEX_POINT ( 'NONE', #12 ) ;
#2 = PRESENTATION_LAYER_ASSIGNMENT (  '', '', ( #35 ) ) ;
#3 = ORIENTED_EDGE ( 'NONE', *, *, #102, .T. ) ;
#4 = ADVANCED_FACE ( 'NONE', ( #51 ), #22, .T. ) ;
#5 = DIRECTION ( 'NONE',  ( 0.0000000000000000000, 0.0000000000000000000, -1.000000000000000000 ) ) ;
#6 = MECHANICAL_DESIGN_GEOMETRIC_PRESENTATION_REPRESENTATION (  '', ( #131 ), #14 ) ;
#7 = CYLINDRICAL_SURFACE ( 'NONE', #95, 4.000000000000000000 ) ;
#8 = PLANE ( 'NONE',  #108 ) ;
#9 =( NAMED_UNIT ( * ) PLANE_ANGLE_UNIT ( ) SI_UNIT ( $, .RADIAN. ) );
#10 = EDGE_LOOP ( 'NONE', ( #3, #130 ) ) ;
#11 = STYLED_ITEM ( 'NONE', ( #46 ), #41 ) ;
#12 = CARTESIAN_POINT ( 'NONE',  ( 0.0000000000000000000, 0.0000000000000000000, 4.000000000000000000 ) ) ;
#13 = UNCERTAINTY_MEASURE_WITH_UNIT (LENGTH_MEASURE( 1.000000000000000082E-05 ), #70, 'distance_accuracy_value', 'NONE');
#14 =( GEOMETRIC_REPRESENTATION_CONTEXT ( 3 ) GLOBAL_UNCERTAINTY_ASSIGNED_CONTEXT ( ( #13 ) ) GLOBAL_UNIT_ASSIGNED_CONTEXT ( ( #70, #75, #164 ) ) REPRESENTATION_CONTEXT ( 'NONE', 'WORKASPACE' ) );
#15 = DIRECTION ( 'NONE',  ( 1.000000000000000000, 0.0000000000000000000, 0.0000000000000000000 ) ) ;
#16 = PRODUCT_DEFINITION_FORMATION_WITH_SPECIFIED_SOURCE ( 'ANY', '', #119, .NOT_KNOWN. ) ;
#17 = DIRECTION ( 'NONE',  ( 0.0000000000000000000, 0.0000000000000000000, 1.000000000000000000 ) ) ;
#18 = CIRCLE ( 'NONE', #127, 4.000000000000000000 ) ;
#19 = SURFACE_STYLE_FILL_AREA ( #114 ) ;
#20 = PRODUCT_CONTEXT ( 'NONE', #139, 'mechanical' ) ;
#21 = PRESENTATION_STYLE_ASSIGNMENT (( #146 ) ) ;
#22 = CYLINDRICAL_SURFACE ( 'NONE', #66, 4.000000000000000000 ) ;
#23 = ORIENTED_EDGE ( 'NONE', *, *, #151, .T. ) ;
#24 = UNCERTAINTY_MEASURE_WITH_UNIT (LENGTH_MEASURE( 1.000000000000000082E-05 ), #148, 'distance_accuracy_value', 'NONE');
#25 = AXIS2_PLACEMENT_3D ( 'NONE', #54, #134, #5 ) ;
#26 = CARTESIAN_POINT ( 'NONE',  ( 0.0000000000000000000, 0.0000000000000000000, 0.0000000000000000000 ) ) ;
#27 = CARTESIAN_POINT ( 'NONE',  ( 0.0000000000000000000, 0.0000000000000000000, 0.0000000000000000000 ) ) ;
#28 =( NAMED_UNIT ( * ) SI_UNIT ( $, .STERADIAN. ) SOLID_ANGLE_UNIT ( ) );
#29 = LINE ( 'NONE', #97, #149 ) ;
#30 =( NAMED_UNIT ( * ) PLANE_ANGLE_UNIT ( ) SI_UNIT ( $, .RADIAN. ) );
#31 =( NAMED_UNIT ( * ) PLANE_ANGLE_UNIT ( ) SI_UNIT ( $, .RADIAN. ) );
#32 = SURFACE_STYLE_FILL_AREA ( #53 ) ;
#33 = UNCERTAINTY_MEASURE_WITH_UNIT (LENGTH_MEASURE( 1.000000000000000082E-05 ), #80, 'distance_accuracy_value', 'NONE');
#34 = ADVANCED_FACE ( 'NONE', ( #88 ), #8, .F. ) ;
#35 = STYLED_ITEM ( 'NONE', ( #163 ), #91 ) ;
#36 = ORIENTED_EDGE ( 'NONE', *, *, #151, .F. ) ;
#37 = MECHANICAL_DESIGN_GEOMETRIC_PRESENTATION_REPRESENTATION (  '', ( #112 ), #141 ) ;
#38 = DIRECTION ( 'NONE',  ( 0.0000000000000000000, 0.0000000000000000000, 1.000000000000000000 ) ) ;
#39 = COLOUR_RGB ( '',0.7960784313725489669, 0.8235294117647058432, 0.9372549019607843146 ) ;
#40 = DIRECTION ( 'NONE',  ( 1.000000000000000000, 0.0000000000000000000, 0.0000000000000000000 ) ) ;
#41 = ADVANCED_BREP_SHAPE_REPRESENTATION ( 'A215 T¨ðÿõ¡õøôðû¹ývù òøýª 8¿281 üü, 4-¿ ÷ð¿þôývù, °ðó 2 üü', ( #155, #120 ), #96 ) ;
#42 = CARTESIAN_POINT ( 'NONE',  ( 0.0000000000000000000, 0.0000000000000000000, 0.0000000000000000000 ) ) ;
#43 = DIRECTION ( 'NONE',  ( 0.0000000000000000000, 0.0000000000000000000, -1.000000000000000000 ) ) ;
#44 = FILL_AREA_STYLE_COLOUR ( '', #79 ) ;
#45 = CARTESIAN_POINT ( 'NONE',  ( 281.0000000000000000, 0.0000000000000000000, 4.000000000000000000 ) ) ;
#46 = PRESENTATION_STYLE_ASSIGNMENT (( #77 ) ) ;
#47 = CARTESIAN_POINT ( 'NONE',  ( 281.0000000000000000, 0.0000000000000000000, 4.000000000000000000 ) ) ;
#48 = DIRECTION ( 'NONE',  ( 0.0000000000000000000, 0.0000000000000000000, 1.000000000000000000 ) ) ;
#49 = VECTOR ( 'NONE', #145, 1000.000000000000000 ) ;
#50 = PRODUCT_RELATED_PRODUCT_CATEGORY ( 'part', '', ( #119 ) ) ;
#51 = FACE_OUTER_BOUND ( 'NONE', #69, .T. ) ;
#52 = ORIENTED_EDGE ( 'NONE', *, *, #140, .F. ) ;
#53 = FILL_AREA_STYLE ('',( #161 ) ) ;
#54 = CARTESIAN_POINT ( 'NONE',  ( 281.0000000000000000, 0.0000000000000000000, 0.0000000000000000000 ) ) ;
#55 = AXIS2_PLACEMENT_3D ( 'NONE', #27, #15, #43 ) ;
#56 = FILL_AREA_STYLE ('',( #153 ) ) ;
#57 = PLANE ( 'NONE',  #25 ) ;
#58 = APPLICATION_PROTOCOL_DEFINITION ( 'draft international standard', 'automotive_design', 1998, #139 ) ;
#59 =( NAMED_UNIT ( * ) SI_UNIT ( $, .STERADIAN. ) SOLID_ANGLE_UNIT ( ) );
#60 = MECHANICAL_DESIGN_GEOMETRIC_PRESENTATION_REPRESENTATION (  '', ( #11 ), #71 ) ;
#61 = ORIENTED_EDGE ( 'NONE', *, *, #116, .F. ) ;
#62 = AXIS2_PLACEMENT_3D ( 'NONE', #136, #40, #106 ) ;
#63 = CARTESIAN_POINT ( 'NONE',  ( 281.0000000000000000, 0.0000000000000000000, 0.0000000000000000000 ) ) ;
#64 =( NAMED_UNIT ( * ) SI_UNIT ( $, .STERADIAN. ) SOLID_ANGLE_UNIT ( ) );
#65 =( LENGTH_UNIT ( ) NAMED_UNIT ( * ) SI_UNIT ( .MILLI., .METRE. ) );
#66 = AXIS2_PLACEMENT_3D ( 'NONE', #89, #165, #38 ) ;
#67 = APPLICATION_PROTOCOL_DEFINITION ( 'draft international standard', 'automotive_design', 1998, #111 ) ;
#68 = PRODUCT_DEFINITION ( 'UNKNOWN', '', #16, #85 ) ;
#69 = EDGE_LOOP ( 'NONE', ( #118, #105, #87, #72 ) ) ;
#70 =( LENGTH_UNIT ( ) NAMED_UNIT ( * ) SI_UNIT ( .MILLI., .METRE. ) );
#71 =( GEOMETRIC_REPRESENTATION_CONTEXT ( 3 ) GLOBAL_UNCERTAINTY_ASSIGNED_CONTEXT ( ( #33 ) ) GLOBAL_UNIT_ASSIGNED_CONTEXT ( ( #80, #30, #59 ) ) REPRESENTATION_CONTEXT ( 'NONE', 'WORKASPACE' ) );
#72 = ORIENTED_EDGE ( 'NONE', *, *, #140, .T. ) ;
#73 = CARTESIAN_POINT ( 'NONE',  ( 0.0000000000000000000, 4.898587196589412829E-16, -4.000000000000000000 ) ) ;
#74 = ADVANCED_FACE ( 'NONE', ( #123 ), #57, .T. ) ;
#75 =( NAMED_UNIT ( * ) PLANE_ANGLE_UNIT ( ) SI_UNIT ( $, .RADIAN. ) );
#76 = DIRECTION ( 'NONE',  ( 1.000000000000000000, 0.0000000000000000000, 0.0000000000000000000 ) ) ;
#77 = SURFACE_STYLE_USAGE ( .BOTH. , #157 ) ;
#78 = COLOUR_RGB ( '',0.7960784313725489669, 0.8235294117647058432, 0.9372549019607843146 ) ;
#79 = COLOUR_RGB ( '',0.7960784313725489669, 0.8235294117647058432, 0.9372549019607843146 ) ;
#80 =( LENGTH_UNIT ( ) NAMED_UNIT ( * ) SI_UNIT ( .MILLI., .METRE. ) );
#81 = UNCERTAINTY_MEASURE_WITH_UNIT (LENGTH_MEASURE( 1.000000000000000082E-05 ), #126, 'distance_accuracy_value', 'NONE');
#82 = COLOUR_RGB ( '',0.7960784313725489669, 0.8235294117647058432, 0.9372549019607843146 ) ;
#83 = SURFACE_STYLE_USAGE ( .BOTH. , #113 ) ;
#84 = EDGE_LOOP ( 'NONE', ( #52, #36 ) ) ;
#85 = PRODUCT_DEFINITION_CONTEXT ( 'detailed design', #111, 'design' ) ;
#86 = EDGE_LOOP ( 'NONE', ( #61, #133, #23, #147 ) ) ;
#87 = ORIENTED_EDGE ( 'NONE', *, *, #154, .T. ) ;
#88 = FACE_OUTER_BOUND ( 'NONE', #84, .T. ) ;
#89 = CARTESIAN_POINT ( 'NONE',  ( 281.0000000000000000, 0.0000000000000000000, 0.0000000000000000000 ) ) ;
#90 = FACE_OUTER_BOUND ( 'NONE', #86, .T. ) ;
#91 = ADVANCED_FACE ( 'NONE', ( #90 ), #7, .T. ) ;
#92 = DIRECTION ( 'NONE',  ( 0.0000000000000000000, 0.0000000000000000000, -1.000000000000000000 ) ) ;
#93 = CIRCLE ( 'NONE', #62, 4.000000000000000000 ) ;
#94 = DIRECTION ( 'NONE',  ( 1.000000000000000000, 0.0000000000000000000, 0.0000000000000000000 ) ) ;
#95 = AXIS2_PLACEMENT_3D ( 'NONE', #63, #166, #17 ) ;
#96 =( GEOMETRIC_REPRESENTATION_CONTEXT ( 3 ) GLOBAL_UNCERTAINTY_ASSIGNED_CONTEXT ( ( #81 ) ) GLOBAL_UNIT_ASSIGNED_CONTEXT ( ( #126, #31, #124 ) ) REPRESENTATION_CONTEXT ( 'NONE', 'WORKASPACE' ) );
#97 = CARTESIAN_POINT ( 'NONE',  ( 281.0000000000000000, 4.898587196589412829E-16, -4.000000000000000000 ) ) ;
#98 = DIRECTION ( 'NONE',  ( 1.000000000000000000, 0.0000000000000000000, 0.0000000000000000000 ) ) ;
#99 = PRESENTATION_STYLE_ASSIGNMENT (( #83 ) ) ;
#100 =( GEOMETRIC_REPRESENTATION_CONTEXT ( 3 ) GLOBAL_UNCERTAINTY_ASSIGNED_CONTEXT ( ( #24 ) ) GLOBAL_UNIT_ASSIGNED_CONTEXT ( ( #148, #107, #64 ) ) REPRESENTATION_CONTEXT ( 'NONE', 'WORKASPACE' ) );
#101 = SURFACE_SIDE_STYLE ('',( #32 ) ) ;
#102 = EDGE_CURVE ( 'NONE', #160, #104, #18, .T. ) ;
#103 = VERTEX_POINT ( 'NONE', #73 ) ;
#104 = VERTEX_POINT ( 'NONE', #156 ) ;
#105 = ORIENTED_EDGE ( 'NONE', *, *, #102, .F. ) ;
#106 = DIRECTION ( 'NONE',  ( 0.0000000000000000000, 0.0000000000000000000, -1.000000000000000000 ) ) ;
#107 =( NAMED_UNIT ( * ) PLANE_ANGLE_UNIT ( ) SI_UNIT ( $, .RADIAN. ) );
#108 = AXIS2_PLACEMENT_3D ( 'NONE', #152, #109, #143 ) ;
#109 = DIRECTION ( 'NONE',  ( 1.000000000000000000, 0.0000000000000000000, 0.0000000000000000000 ) ) ;
#110 = FILL_AREA_STYLE_COLOUR ( '', #82 ) ;
#111 = APPLICATION_CONTEXT ( 'automotive_design' ) ;
#112 = STYLED_ITEM ( 'NONE', ( #99 ), #155 ) ;
#113 = SURFACE_SIDE_STYLE ('',( #19 ) ) ;
#114 = FILL_AREA_STYLE ('',( #110 ) ) ;
#115 = PRODUCT_DEFINITION_SHAPE ( 'NONE', 'NONE',  #68 ) ;
#116 = EDGE_CURVE ( 'NONE', #104, #160, #93, .T. ) ;
#117 = AXIS2_PLACEMENT_3D ( 'NONE', #42, #94, #92 ) ;
#118 = ORIENTED_EDGE ( 'NONE', *, *, #158, .F. ) ;
#119 = PRODUCT ( 'A215 Òðàïåöåèäàëüíûé âèíò 8õ281 ìì, 4-õ çàõîäíûé, øàã 2 ìì', 'A215 Òðàïåöåèäàëüíûé âèíò 8õ281 ìì, 4-õ çàõîäíûé, øàã 2 ìì', '', ( #20 ) ) ;
#120 = AXIS2_PLACEMENT_3D ( 'NONE', #26, #48, #98 ) ;
#121 = CARTESIAN_POINT ( 'NONE',  ( 281.0000000000000000, 0.0000000000000000000, 0.0000000000000000000 ) ) ;
#122 = CIRCLE ( 'NONE', #117, 4.000000000000000000 ) ;
#123 = FACE_OUTER_BOUND ( 'NONE', #10, .T. ) ;
#124 =( NAMED_UNIT ( * ) SI_UNIT ( $, .STERADIAN. ) SOLID_ANGLE_UNIT ( ) );
#125 = SHAPE_DEFINITION_REPRESENTATION ( #115, #41 ) ;
#126 =( LENGTH_UNIT ( ) NAMED_UNIT ( * ) SI_UNIT ( .MILLI., .METRE. ) );
#127 = AXIS2_PLACEMENT_3D ( 'NONE', #121, #76, #168 ) ;
#128 = LINE ( 'NONE', #45, #49 ) ;
#129 = SURFACE_STYLE_FILL_AREA ( #170 ) ;
#130 = ORIENTED_EDGE ( 'NONE', *, *, #116, .T. ) ;
#131 = STYLED_ITEM ( 'NONE', ( #21 ), #4 ) ;
#132 = PRESENTATION_LAYER_ASSIGNMENT (  '', '', ( #11 ) ) ;
#133 = ORIENTED_EDGE ( 'NONE', *, *, #158, .T. ) ;
#134 = DIRECTION ( 'NONE',  ( 1.000000000000000000, 0.0000000000000000000, 0.0000000000000000000 ) ) ;
#135 = SURFACE_STYLE_USAGE ( .BOTH. , #138 ) ;
#136 = CARTESIAN_POINT ( 'NONE',  ( 281.0000000000000000, 0.0000000000000000000, 0.0000000000000000000 ) ) ;
#137 = PRESENTATION_LAYER_ASSIGNMENT (  '', '', ( #131 ) ) ;
#138 = SURFACE_SIDE_STYLE ('',( #150 ) ) ;
#139 = APPLICATION_CONTEXT ( 'automotive_design' ) ;
#140 = EDGE_CURVE ( 'NONE', #1, #103, #122, .T. ) ;
#141 =( GEOMETRIC_REPRESENTATION_CONTEXT ( 3 ) GLOBAL_UNCERTAINTY_ASSIGNED_CONTEXT ( ( #162 ) ) GLOBAL_UNIT_ASSIGNED_CONTEXT ( ( #65, #9, #28 ) ) REPRESENTATION_CONTEXT ( 'NONE', 'WORKASPACE' ) );
#142 = PRESENTATION_LAYER_ASSIGNMENT (  '', '', ( #112 ) ) ;
#143 = DIRECTION ( 'NONE',  ( 0.0000000000000000000, 0.0000000000000000000, -1.000000000000000000 ) ) ;
#144 = DIRECTION ( 'NONE',  ( -1.000000000000000000, -0.0000000000000000000, -0.0000000000000000000 ) ) ;
#145 = DIRECTION ( 'NONE',  ( -1.000000000000000000, -0.0000000000000000000, -0.0000000000000000000 ) ) ;
#146 = SURFACE_STYLE_USAGE ( .BOTH. , #101 ) ;
#147 = ORIENTED_EDGE ( 'NONE', *, *, #154, .F. ) ;
#148 =( LENGTH_UNIT ( ) NAMED_UNIT ( * ) SI_UNIT ( .MILLI., .METRE. ) );
#149 = VECTOR ( 'NONE', #144, 1000.000000000000000 ) ;
#150 = SURFACE_STYLE_FILL_AREA ( #56 ) ;
#151 = EDGE_CURVE ( 'NONE', #103, #1, #167, .T. ) ;
#152 = CARTESIAN_POINT ( 'NONE',  ( 0.0000000000000000000, 0.0000000000000000000, 0.0000000000000000000 ) ) ;
#153 = FILL_AREA_STYLE_COLOUR ( '', #39 ) ;
#154 = EDGE_CURVE ( 'NONE', #160, #1, #128, .T. ) ;
#155 = MANIFOLD_SOLID_BREP ( 'Áîáûøêà-Âûòÿíóòü1', #169 ) ;
#156 = CARTESIAN_POINT ( 'NONE',  ( 281.0000000000000000, 4.898587196589412829E-16, -4.000000000000000000 ) ) ;
#157 = SURFACE_SIDE_STYLE ('',( #129 ) ) ;
#158 = EDGE_CURVE ( 'NONE', #104, #103, #29, .T. ) ;
#159 = MECHANICAL_DESIGN_GEOMETRIC_PRESENTATION_REPRESENTATION (  '', ( #35 ), #100 ) ;
#160 = VERTEX_POINT ( 'NONE', #47 ) ;
#161 = FILL_AREA_STYLE_COLOUR ( '', #78 ) ;
#162 = UNCERTAINTY_MEASURE_WITH_UNIT (LENGTH_MEASURE( 1.000000000000000082E-05 ), #65, 'distance_accuracy_value', 'NONE');
#163 = PRESENTATION_STYLE_ASSIGNMENT (( #135 ) ) ;
#164 =( NAMED_UNIT ( * ) SI_UNIT ( $, .STERADIAN. ) SOLID_ANGLE_UNIT ( ) );
#165 = DIRECTION ( 'NONE',  ( -1.000000000000000000, -0.0000000000000000000, -0.0000000000000000000 ) ) ;
#166 = DIRECTION ( 'NONE',  ( -1.000000000000000000, -0.0000000000000000000, -0.0000000000000000000 ) ) ;
#167 = CIRCLE ( 'NONE', #55, 4.000000000000000000 ) ;
#168 = DIRECTION ( 'NONE',  ( 0.0000000000000000000, 0.0000000000000000000, -1.000000000000000000 ) ) ;
#169 = CLOSED_SHELL ( 'NONE', ( #91, #4, #74, #34 ) ) ;
#170 = FILL_AREA_STYLE ('',( #44 ) ) ;
ENDSEC;
END-ISO-10303-21;
